À Sua Maneira

Capital Inicial

Tom: Bm
1º solo 
 
e------------------------------------------------------ 
B------------------------------------------------------ 
G-------------------------------------------------9--7- 
D-------------------------------------------------9--7- 
A-2-2-4-5--5-5-4-2-0-----2-0-2-0--0-2-2-4-5-7-9-9---9-- 
E--------------------2-5------------------------------- 
 
e------------------------------------------------------- 
B------------------------------------------------------- 
G------7-7------7--------------------------------------- 
D------7-7------7-7h9-7--------------------------------- 
A--9-9-----9-9---------9-7-5-5h7-5-4-2------------------ 
E------------------------------------------------------- 
 
2º solo 
 
e----------------------------------7/12-10-12-10-10-9-10 
B-----12--10--12--10------------------------------------ 
G---11--11--11--11--4/9-7-9-7-6-7-6--------------------- 
D------------------------------------------------------- 
A------------------------------------------------------- 
E------------------------------------------------------- 
 
E-9----------------------------------------------------- 
B--10-10/12-12-12-12\7-7-7-7/10-10-10\5-5-5-5h7-5-3-2-0- 
G----------------------------------------------------2-- 
D------------------------------------------------------- 
A------------------------------------------------------- 
E------------------------------------------------------- 

Compartilhe esta música: novo

QR Code
Copiar