Ill Be Your Butcher

Cancerslug

Tom: D#
Intro 

C |--------------------------------------------------------------------------| 
G |--------------------------------------------------------------------------| 
D#|--------------------------------------------------------------------------| 
A#|3-3-3-2-0-----------------------------------------------------------------| 
F |---------3-3-3-2-0-------2-3~---------------------------------------------| 
C |------------------3-3-3-3----2~-------------------------------------------| 


Verse 

C |--------------------------------------------------------------------------| 
G |--------------------------------------------------------------------------| 
D#|5-x-5-x-x-x-5-x-5-x-x-x--2-x-2-x-x-x-2-x-2-x-x-x--------------------------| 
A#|5-x-5-x-x-x-5-x-5-x-x-x--2-x-2-x-x-x-2-x-2-x-x-x--5-x-5-x-x-x-5-x-5-x-x-x-| 
F |3-x-3-x-x-x-3-x-3-x-x-x--0-x-0-x-x-x-0-x-0-x-x-x--5-x-5-x-x-x-5-x-5-x-x-x-| 
C |--------------------------------------------------3-x-3-x-x-x-3-x-3-x-x-x-| 

C |--------------------------------------------------------------------------| 
G |--------------------------------------------------------------------------| 
D#|-----------5-5-5----------------------------------------------------------| 
A#|3-x-3-3-3--5-5-5-4-4-4----------------------------------------------------| 
F |3-x-3-3-3--3-3-3-4-4-4----------------------------------------------------| 
C |1-x-1-1-1--------2-2-2----------------------------------------------------| 


Chorus A 

C |--------------------------------------------------------------------------| 
G |--------------------------------------------------------------------------| 
D#|10-10-10-9-7--5-5-5-4-2----------4-5-5------------------------------------| 
A#|10-10-10-9-7--5-5-5-4-2--5-5-5-5-4-5-5-4:---------------------------------| 
F |-8--8--8-7-5--3-3-3-2-0--5-5-5-5-2-3-3-4:---------------------------------| 
C |-------------------------3-3-3-3-------2:---------------------------------| 


Verse 

C |--------------------------------------------------------------------------| 
G |--------------------------------------------------------------------------| 
D#|5-x-5-x-x-x-5-x-5-x-x-x--2-x-2-x-x-x-2-x-2-x-x-x--------------------------| 
A#|5-x-5-x-x-x-5-x-5-x-x-x--2-x-2-x-x-x-2-x-2-x-x-x--5-x-5-x-x-x-5-x-5-x-x-x-| 
F |3-x-3-x-x-x-3-x-3-x-x-x--0-x-0-x-x-x-0-x-0-x-x-x--5-x-5-x-x-x-5-x-5-x-x-x-| 
C |--------------------------------------------------3-x-3-x-x-x-3-x-3-x-x-x-| 


Chorus B 

C |--------------------------------------------------------------------------| 
G |--------------------------------------------------------------------------| 
D#|10-10-10-10--5-5-5-5-5-------------5-5-5-5-5-----------5-5-5-5-5----------| 
A#|10-10-10-10--5-5-5-5-5--6-6-6-6-6--5-5-5-5-5--3-3-3-3--5-5-5-5-5----------| 
F |-8--8--8--8--3-3-3-3-3--6-6-6-6-6--3-3-3-3-3--3-3-3-3--3-3-3-3-3----------| 
C |------------------------4-4-4-4-4-------------1-1-1-1---------------------| 

C |--------------------------------------------------------------------------| 
G |--------------------------------------------------------------------------| 
D#|--------------------------------------------------------------------------| 
A#|5-5-5-5-5-5-5-5-5-5-5-5-5--3-3-3-3-3-3-3-3-3-3-3-3-3-3--------------------| 
F |5-5-5-5-5-5-5-5-5-5-5-5-5--3-3-3-3-3-3-3-3-3-3-3-3-3-3--------------------| 
C |3-3-3-3-3-3-3-3-3-3-3-3-3--1-1-1-1-1-1-1-1-1-1-1-1-1-1--------------------| 
(PM) . . . . .                  . . . . .   


Verse 

C |--------------------------------------------------------------------------| 
G |--------------------------------------------------------------------------| 
D#|5-x-5-x-x-x-5-x-5-x-x-x--2-x-2-x-x-x-2-x-2-x-x-x--------------------------| 
A#|5-x-5-x-x-x-5-x-5-x-x-x--2-x-2-x-x-x-2-x-2-x-x-x--5-x-5-x-x-x-5-x-5-x-x-x-| 
F |3-x-3-x-x-x-3-x-3-x-x-x--0-x-0-x-x-x-0-x-0-x-x-x--5-x-5-x-x-x-5-x-5-x-x-x-| 
C |--------------------------------------------------3-x-3-x-x-x-3-x-3-x-x-x-| 

C |--------------------------------------------------------------------------| 
G |--------------------------------------------------------------------------| 
D#|-----------5-5-5----------------------------------------------------------| 
A#|3-x-3-3-3--5-5-5-4-4-4----------------------------------------------------| 
F |3-x-3-3-3--3-3-3-4-4-4----------------------------------------------------| 
C |1-x-1-1-1--------2-2-2----------------------------------------------------| 


Chorus A 

C |--------------------------------------------------------------------------| 
G |--------------------------------------------------------------------------| 
D#|10-10-10-9-7--5-5-5-4-2----------4-5-5------------------------------------| 
A#|10-10-10-9-7--5-5-5-4-2--5-5-5-5-4-5-5-4:---------------------------------| 
F |-8--8--8-7-5--3-3-3-2-0--5-5-5-5-2-3-3-4:---------------------------------| 
C |-------------------------3-3-3-3-------2:---------------------------------| 


Verse 

C |--------------------------------------------------------------------------| 
G |--------------------------------------------------------------------------| 
D#|5-x-5-x-x-x-5-x-5-x-x-x--2-x-2-x-x-x-2-x-2-x-x-x--------------------------| 
A#|5-x-5-x-x-x-5-x-5-x-x-x--2-x-2-x-x-x-2-x-2-x-x-x--5-x-5-x-x-x-5-x-5-x-x-x-| 
F |3-x-3-x-x-x-3-x-3-x-x-x--0-x-0-x-x-x-0-x-0-x-x-x--5-x-5-x-x-x-5-x-5-x-x-x-| 
C |--------------------------------------------------3-x-3-x-x-x-3-x-3-x-x-x-| 


Chorus B 

C |--------------------------------------------------------------------------| 
G |--------------------------------------------------------------------------| 
D#|10-10-10-10--5-5-5-5-5-------------5-5-5-5-5-----------5-5-5-5-5----------| 
A#|10-10-10-10--5-5-5-5-5--6-6-6-6-6--5-5-5-5-5--3-3-3-3--5-5-5-5-5----------| 
F |-8--8--8--8--3-3-3-3-3--6-6-6-6-6--3-3-3-3-3--3-3-3-3--3-3-3-3-3----------| 
C |------------------------4-4-4-4-4-------------1-1-1-1---------------------| 

C |--------------------------------------------------------------------------| 
G |--------------------------------------------------------------------------| 
D#|--------------------------------------------------------------------------| 
A#|5-5-5-5-5-5-5-5-5-5-5-5-5--3-3-3-3-3-3-3-3-3-3-3-3-3-3--------------------| 
F |5-5-5-5-5-5-5-5-5-5-5-5-5--3-3-3-3-3-3-3-3-3-3-3-3-3-3--------------------| 
C |3-3-3-3-3-3-3-3-3-3-3-3-3--1-1-1-1-1-1-1-1-1-1-1-1-1-1--------------------| 
(PM) . . . . .                  . . . . .   


Outro 

C |--------------------------------------------------------------------------| 
G |--------------------------------------------------------------------------| 
D#|5-5-5-5-5---------------5:------------------------------------------------| 
A#|5-5-5-5-5--5-5-5-5-5-5--5:------------------------------------------------| 
F |3-3-3-3-3--5-5-5-5-5-5--3:------------------------------------------------| 
C |-----------3-3-3-3-3-3----------------------------------------------------|  

Compartilhe esta música: novo

QR Code
Copiar