One Day

Caliban

Tom: C
0:00-0:11 

guitar 1 
D|------------------------------------------------------------| 
A|------------------------------------------------------------| 
F|------------------------------------------------------------| 
C|-0---------------1---------------0--------------------------| 
G|-0---------------1---------------0---------------7-h-8---8--| 
C|-0---0-0-0-0-0---1---0-0-0-0-0---0---0-0-0-0-0---7-h-8------| 
                                                         p.h. 
guitar 2 
D|------------------------------------------------------------| 
A|------------------------------------------------------------| 
F|------------------------------------------------------------| 
C|-0---------------1---------------0--------------------------| 
G|-0---------------1---------------0---------------7-h-8---8--| 
C|-0---0-0-0-0-0---1---0-0-0-0-0---0---0-0-0-0-0--------------| 
                                                   p.h.   p.h. 

guitar 1 
D|------------------------------------------------------------| 
A|------------------------------------------------------------| 
F|------------------------------------------------------------| 
C|-0---------------1------------------------------------------| 
G|-0---------------1---------------7----8----3----4----3----1-| 
C|-0---0-0-0-0-0---1---0-0-0-0-0---7----8----3----4----3----1-| 
                                            
guitar 2 
D|------------------------------------------------------------| 
A|------------------------------------------------------------| 
F|------------------------------------------------------------| 
C|-0---------------1------------------------------------------| 
G|-0---------------1---------------7----8----3----4----3----1-| 
C|-0---0-0-0-0-0---1---0-0-0-0-0---7----8----3----4----3----1-| 



0:11-0:35 

both guitars  
D|----------------------------------------------| 
A|----------------------------------------------| 
F|----------------------------------------------| 
C|----------------------------------------------| 
G|-0-0-0-0-0-----0---0---0-0-0-0-0---0-0-0-0-0--| 
C|-0-0-0-0-0-----0---0---0-0-0-0-0---0-0-0-0-0--| 


D|----------------------------------------------| 
A|----------------------------------------------| 
F|----------------------------------------------| 
C|----------------------------------------------| 
G|-0-0-0-0-0-----0---0---0-0-0-0-0---0-0-0-0-0--| 
C|-0-0-0-0-0-----0---0---0-0-0-0-0---0-0-0-0-0--| 


D|----------------------------------------------| 
A|----------------------------------------------| 
F|----------------------------------------------| 
C|----------------------------------------------| 
G|-0-0-0-0-0-----0---0---0-0-0-0-0---0-0-0-0-0--| 
C|-0-0-0-0-0-----0---0---0-0-0-0-0---0-0-0-0-0--| 


D|--------------------------------------------------| 
A|--------------------------------------------------| 
F|--------------------------------------------------| 
C|--------------------------------------------------| 
G|-0-0-0-0-0-----0---0---7----8----3----4----3----1-| 
C|-0-0-0-0-0-----0---0---7----8----3----4----3----1-| 



0:35-0:58 

both guitars 
D|----------------------------------------------------------------| 
A|----------------------------------------------------------------| 
F|----------------------------------------------------------------| 
C|----------------------------------------------------------------| 
G|-0-----------7-----------7-h-8---0-----------7-----------8-h-10-| 
C|-0---0---0---7---0---0---7-h-8---0---0---0---7---0---0---8-h-10-| 


guitar 1 
D|-------------------------------------------------------------------| 
A|-------------------------------------------------------------------| 
F|-------------------------------------------------------------------| 
C|-------------------------------------------------------------------| 
G|-8----------------------------------5------------------------------| 
C|-8---8---8---10---8---8---10-h-12---5---5---5---8---5---5---8-/-10-| 

guitar 2 
D|---------------------------------------------------------------| 
A|---------------------------------------------------------------| 
F|---------------------------------------------------------------| 
C|---------------------------------------------------------------| 
G|-8-----------7-----------7-h-8---5-----------5-----------5-h-7-| 
C|-8---8---8-------8---8-----------5---5---5-------5---5---------| 



0:58-1:10 

guitar 1 
D|----------------------------------------------------------------| 
A|----------------------------------------------------------------| 
F|----------------------------------------------------------------| 
C|----------------------------------------------------------------| 
G|-0---0---0-h-1---0---0---0-h-1---0---0---0-h-1---0--------------| 
C|-0---0---0-h-1---0---0---0-h-1---0---0---0-h-1---0--------------| 

guitar 2 
D|----------------------------------------------------------------| 
A|----------------------------------------------------------------| 
F|----------------------------------------------------------------| 
C|----------------------------------------------------------------| 
G|-0---0-----------0---0-----------0---0-----------0--------------| 
C|-0---0-----------0---0-----------0---0-----------0--------------| 


guitar 1 
D|----------------------------------------------------------------| 
A|----------------------------------------------------------------| 
F|----------------------------------------------------------------| 
C|----------------------------------------------------------------| 
G|-0---0---0-h-1---0---0---0-h-1---0---0---0---0---0--------------| 
C|-0---0---0-h-1---0---0---0-h-1---0---0---0---0---0--------------| 

guitar 2 
D|-------------------------------------------------13-------12------| 
A|------------------------------------------------------------------| 
F|------------------------------------------------------------------| 
C|------------------------------------------------------------------| 
G|-0---0-----------0---0-----------0---0---0---0--------------------| 
C|-0---0-----------0---0-----------0---0---0---0--------------------| 



1:10-1:21 

guitar 1 
D|----------------------------------------------------------------| 
A|----------------------------------------------------------------| 
F|----------------------------------------------------------------| 
C|----------------------------------------------------------------| 
G|-0---0---0-h-1---0---0---0-h-1---0---0---0-h-1---0--------------| 
C|-0---0---0-h-1---0---0---0-h-1---0---0---0-h-1---0--------------| 

guitar 2 
D|----------------------------------------------------------------| 
A|----------------------------------------------------------------| 
F|----------------------------------------------------------------| 
C|----------------------------------------------------------------| 
G|-0---0---0---0---0---0---0---0---0---0---0---0---0---0---0---0--| 
C|-0---0---0---0---0---0---0---0---0---0---0---0---0---0---0---0--| 


guitar 1 
D|----------------------------------------------------------------| 
A|----------------------------------------------------------------| 
F|----------------------------------------------------------------| 
C|----------------------------------------------------------------| 
G|-0---0---0-h-1---0---0---0-h-1---0---0---0---0---0--------------| 
C|-0---0---0-h-1---0---0---0-h-1---0---0---0---0---0--------------| 

guitar 2 
D|-------------------------------------------------13-------12------| 
A|------------------------------------------------------------------| 
F|------------------------------------------------------------------| 
C|------------------------------------------------------------------| 
G|-0---0---0---0---0---0---0---0---0---0---0---0--------------------| 
C|-0---0---0---0---0---0---0---0---0---0---0---0--------------------| 


guitar 1 
D|----------------------------------------------------------------| 
A|----------------------------------------------------------------| 
F|----------------------------------------------------------------| 
C|----------------------------------------------------------------| 
G|-0---0---0-h-1---0---0---0-h-1---0---0---0-h-1---0--------------| 
C|-0---0---0-h-1---0---0---0-h-1---0---0---0-h-1---0--------------| 

guitar 2 
D|----------------------------------------------------------------| 
A|----------------------------------------------------------------| 
F|----------------------------------------------------------------| 
C|----------------------------------------------------------------| 
G|-0---0---0---0---0---0---0---0---0---0---0---0---0---0---0---0--| 
C|-0---0---0---0---0---0---0---0---0---0---0---0---0---0---0---0--| 


guitar 1 
D|-------------------------------------------------------------| 
A|-------------------------------------------------------------| 
F|-------------------------------------------------------------| 
C|-------------------------------------------------------------| 
G|-0---0---0-h-1---0---0---0-h-1---7----8----3----4----3----1--| 
C|-0---0---0-h-1---0---0---0-h-1---7----8----3----4----3----1--| 

guitar 2 
D|-------------------------------------------------------------| 
A|-------------------------------------------------------------| 
F|-------------------------------------------------------------| 
C|-------------------------------------------------------------| 
G|-0---0---0---0---0---0---0---0---7----8----3----4----3----1--| 
C|-0---0---0---0---0---0---0---0---7----8----3----4----3----1--| 



1:56-2:08 

guitar 1 
D|----------------------------------------------------------------| 
A|----------------------------------------------------------------| 
F|----------------------------------------------------------------| 
C|----------------------------------------------------------------| 
G|-0---0---0-h-1---0---0---0-h-1---0---0---0-h-1---0--------------| 
C|-0---0---0-h-1---0---0---0-h-1---0---0---0-h-1---0--------------| 

guitar 2 
D|----------------------------------------------------------------| 
A|----------------------------------------------------------------| 
F|----------------------------------------------------------------| 
C|----------------------------------------------------------------| 
G|-0---0-----------0---0-----------0---0-----------0--------------| 
C|-0---0-----------0---0-----------0---0-----------0--------------| 


guitar 1 
D|-------------------------------------------------13-------12------| 
A|------------------------------------------------------------------| 
F|------------------------------------------------------------------| 
C|------------------------------------------------------------------| 
G|-0---0---0-h-1---0---0---0-h-1---0---0---0---0--------------------| 
C|-0---0---0-h-1---0---0---0-h-1---0---0---0---0--------------------| 

guitar 2 
D|-------------------------------------------------13-------12------| 
A|------------------------------------------------------------------| 
F|------------------------------------------------------------------| 
C|------------------------------------------------------------------| 
G|-0---0-----------0---0-----------0---0---0---0--------------------| 
C|-0---0-----------0---0-----------0---0---0---0--------------------| 



************************************ 

| /    slide up 
| \    slide down 
| h    hammer-on 
| p    pull-off 
| ~    vibrato 
| +    harmonic 
| x    Mute note 
| b    Bend 
| pb   Pre-bend 
| br   Bend release 
| pbr  Pre-bend release 
| brb  Bend release bend 
| p.h. pinch harmonic 

************************************ 

Compartilhe esta música: novo

QR Code
Copiar