Breathe In

Braid


gtr 1: Bob Nanna 
gtr 2: Chris Broach 

Tuning: Standard 
   Gtr 1 intro               Gtr 2 intro 
e|-------------9------------|-----------| 
B|----------10---10---------|-----------| 
G|-------11---------11------|-----------| 
D|----12---------------12---|-----------| 
A|--9-----------------------|-4/9-(9)---| 
E|--------------------------|------10---| 
   
    
 gtr 2 verse   gtr 1 verse alternates    gtr 1 
e|--------|    between the intro riff  e|-9---|     
B|-10-----|    and this chord          B|-10--| 
G|-x------|                            G|-11--| 
D|-7------|                            D|-12--| 
A|-x------|                            A|-9---| 
E|-9------|                            E|-----| 

bridge 
e|----------------------| 
B|----------------------| 
G|-11--11---9--9----6~--| 
D|-x---x----x--x--------| 
A|-9---9----7--7---4----| 
E|(10)(10)-(9)(9)-------| 


   Chorus arranged for one guitar  
e|----------------------------------------------------------| 
B|---------12-14------------0----0---------12-14--------10--| 
G|--7---7--x--x---7---4--xx-4-xx-4--7---7--x--x---7--7--x---| 
D|--7---9--9--11--7---4--xx---xx----7---9--9--11--7--9--7---| 
A|--5---9---------5---2-----2----2--5---9---------5--9--x---| 
E|------------------------------------------------------9---| 

outro 
gtr 2 plays the verse chord as a bridge to the outro and for the entirety of it 
gtr 1 
e|------------| 
B|------------| 
G|-6-7-4---7--| 
D|------------| 
A|-4-5-2---5--| 
E|------------| 

Compartilhe esta música: novo

QR Code
Copiar