In The Garden

Brad Paisley

e-------------------------------------------------------------------------------- 
b-------------------------------------------------------------------------------- 
g----------0--4--4--2---2h3p2 0--------------------------------------------------------- 
d-0  0h2------------------------------------------------------------------------------- 
a-------------------------------------------------------------------------------- 
e------------- 3--3--2------------------------------------------------------------- 
 
e-0-------2-------0----------------------------------------------------------------- 
b-0-------3-------1----------------------------------------------------------------- 
g-0-------2-------0-------------0-------------------------------------------------- 
d-2-------0-------2-------0h2----------------------------------------------------------- 
a-2----------------3--------------------------------------------------------------- 
e-0-------------------------------------------------------------------------------- 
 
e--2------------2------2 3 2 0 2---2--------2--------------------------------------------- 
b--2------------3------3-------------2---------3---------------------------------------------- 
g--0------------2------2-------------0---------2---------------------------------------------- 
d--0----2 3 ---0------0-------------0---------0--------------------------------------------------- 
a--2-----------------------------------2-------------------------------------------------- 
e--3-----------------------------------3--------------------------------------------------- 
 
This is the intro before the first verse 

Compartilhe esta música: novo

QR Code
Copiar