Bed Of Roses

Bon Jovi

Tom: Bb
/= Deslizar 
^= Levantar 
*= Vibrato 
^_= hay q tener la levantada anterior, y este 15 empieza con la cuerda levantada, nose si entienden, escuchen la cancion :P 

Riff1: 
|---------------------------|1ra 
|--3/4-3--------------------| 
|---------3-----------------| 
|------------3--------------| 
|---------------------------| 
|---------------------------|6ta 

Riff2: 
|-10-13---------------------|1ra 
|-10----10--13-----10-------| 
|-10------------12----10/12-| 
|---------------------------| 
|---------------------------| 
|---------------------------|6ta 

Riff3: 
|--8------13-----------------|1ra 
|----------------------------| 
|-----10---------------------| 
|----------------------------| 
|----------------------------| 
|----------------------------|6ta 

Riff4 
|---------------------------|1ra 
|---------------------------| 
|--7/8/7---7----------------| 
|--------8---8--------------| 
|--------------8------------| 
|---------------------------|6ta 

Riff5: 
|---------------------------|1ra 
|---------------------------| 
|---------------------------| 
|---------------------------| 
|---------------------------| 
|-3/4--3--1--1--------------|6ta 





F+ 
|------3-------|1ra 
|------1-------| 
|------2-------| 
|------1-------| 
|------3-------| 
|------1-------|6ta 

   
------- 

Bb                                            F 
Sitting here wasted and wounded with this old piano. 

       Bb                                         F 
Trying hard to capture the moment, this morning I don't know. 

         Am                    Bb                       F 
'cause a bottle of vodka still lies in my head and some blonde 

                                                   Bb  Riff1 
gave me nightmares, I think that she's still in my bed. 

     Bb                      C                         F     
As I think about movies they won't make of me when I'm dead. 

        Bb                                          F       Riff2 
With an iron-clad fist I wake up to french-kiss the morning. 

        Bb                                                        F  
While a marching band keeps it's own beat in my head while we're  
        Riff3 
talking 

      Am                  Bb                       F          
about all of the things I longed to believe, about love, the truth, 

                            Bb       RIff4 
what you mean to me and the truth is... 

Bb          C            F   F - F - F - C 
Baby you're all that I need. 

coro: 
------ 

        Dm      C         Bb     F    Riff5 
I wanna lay you down in a bed of roses. 


Dm        C          Bb     F   
Tonight I sleep on a bed of nails. 

        Bb         F            Bb   F 
I wanna be just as close as the Holy Ghost is. 

Dm  C   Bb                F     F - F - F - C 
Lay you down, on a bed of roses. 


    Bb                  C 
The hotel bars hangover whiskey's gone dry. 

       F                 
The bartender's wig's crooked, she's giving me the eye. 

  Bb                       Bb              C         F   F-F+-F-C 
I might've said yes, but I laughed so hard I think I died. 

Solo: 

|-10-12-13-10-12-8-10-6-8-5-6-5-----------------------8--|1ra 
|-10----------------------------8-6-8-8^*-6---6--8/10----| 
|-10----------------------------------------7------------| 
|--------------------------------------------------------| 
|--------------------------------------------------------| 
|--------------------------------------------------------|6ta 

|-------13-15-15^-15^_--13-15-----------------|1ra 
|-13-15-----------------------13--13-15-------| 
|---------------------------------------14----| 
|---------------------------------------------| 
|---------------------------------------------| 
|---------------------------------------------|6ta 

|-10-12-13*--12*--12/13-13*---8/10---10/8----|1ra 
|-10-----------------------------------------| 
|-10-----------------------------------------| 
|--------------------------------------------| 
|--------------------------------------------| 
|--------------------------------------------|6ta 




------- 

Now as you close your eyes you know I'll be thinking about you. 
My mistress she calls me to stand in her spotlight again. 
I won't be alone, you know that don't mean I'm not lonely. 
          Dm          C         Bb                   F   F-F-F-C 
I've got nothing to prove, for its you I'd die to defend. 

coro: 
------ 

        Dm      C         Bb     F    Riff5 
I wanna lay you down in a bed of roses. 


Dm        C          Bb     F   
Tonight I sleep on a bed of nails. 

        Bb         F            Bb   F 
I wanna be just as close as the Holy Ghost is. 

Dm  C   Bb                F      
Lay you down, on a bed of roses. 

Compartilhe esta música: novo

QR Code
Copiar