Watch Her Strut

Bob Seger

E----0---------------------------------0--------------------------------| 
 B-----0--------------------------------0--------------------------------| 
 G------4-------------------------------4--------------------------------| 
 D-------2-----------0h2p0h2p0h2p0------2--------------------------------| 
 A--------2-----------------------------2--------------------------------| 
 E---------0----------------------------0--------------------------------| 

 Main riff: 

 E-----------------------------------------------------------------------| 
 B-----------------------------------------------------------------------| 
 G-----------------------------------------------------------------------| 
 D-----------------------------------------------------------------------| 
 A-----------7--------------5--------------4---4---4---5---2-------------| 
 E-----0-3-4---0-0--0---3-4---0-0--0---3-4---0---0---0---0---0-0---0-----| 

 Play the main riff muffled behind the verses. 

 Chorus: 

 E-----------------------------------------------------------------------| 
 B-----------------------------------------------------------------------| 
 G----------2---2------5---5---------------------------------------------| 
 D----------2---2------5---5----2--2--2-------2--2--2--2-----------------| 
 A----------0---0------3---3----2--2--2-------2--2--2--2-----------------| 
 E----0-3-0---------------------0--0--0-0-3-4-0--0--0--0-----------------| 

 E-----------------------------------------------------------------------| 
 B-----------------------------------------------------------------------| 
 G----------2---2------5---5----4-4-4-4-4-4-4-4-4-4-4-4-4----------------| 
 D----------2---2------5---5----4-4-4-4-4-4-4-4-4-4-4-4-4----------------| 
 A----------0---0------3---3----2-2-2-2-2-2-2-2-2-2-2-2-2----------------| 
 E-----------------------------------------------------------------------| 

 E-----------------0--------------2---------------2-----------0--0-------| 
 B-----------------0--------------0---------------0-----------0--0-------| 
 G-----------------4--------------4---------------4-----------4--4-------| 
 D-----------------2--------------2---------------2-----------2--2-------| 
 A----------7--------------5--------------4---4-------5---2--------------| 
 E----0-3-4---0-0------3-4---0-0------3-4---0---0---0---0---0------------| 

 Verse 

 Chorus 

 Solo 

 E-----------------------------------------------------------------------| 
 B-----------------------------------------------------------------------| 
 G-----------------------------------------b14(14)--12-14--12--14p12-----| 
 D----------2-----------------2--------------------------------------14--| 
 A----2-2h4---(echo)----2-2h4---(echo)-----------------------------------| 
 E-----------------------------------------------------------------------| 

 E-----------------------------------------------------------------------| 
 B-----------------------------------------------------------------------| 
 G----12-14-12v-----------------9------------------9---------------------| 
 D-----------------------9-9h11---(echo)----9-9h11------(echo)-----------| 
 A-----------------------------------------------------------------------| 
 E-----------------------------------------------------------------------| 

 E----17b(18)(17)-15-17-15-----------------------------------------------| 
 B-------------------------17b(18)(17)-15-17-15--------------------------| 
 G----------------------------------------------16-15-14-12--------------| 
 D----------------------------------------------------------14-12--------| 
 A-----------------------------------------------------------------------| 
 E-----------------------------------------------------------------------| 

 E-----------------------------------------------------------------------| 
 B-----------------------------------------------------------------------| 
 G-----------------------------------------------------------------------| 
 D-----------------------------------------------------------------------| 
 A----14-13-12v----------------------------------------------------------| 
 E-----------------------------------------------------------------------| 

 Chorus 

 Repeat main riff - then with chords 

Compartilhe esta música: novo

QR Code
Copiar