Old Time Rock And Roll (solo)

Bob Seger

Tom: C
        C 
E|---------8-----------------8-------8-------| 
H|-------------------------------------------| 
G|-5-7-7b9---7b9r7-5---5-7b9---7/7b9---7b9\7-| 
D|-------------------7-----------------------| 
A|-------------------------------------------| 
E|-------------------------------------------| 
         
   F 
E|-8-8-10-10b11-10b11-10-8-10-10b11r10-8----8--| 
H|---------------------------------------10----| 
G|---------------------------------------------| 
D|---------------------------------------------| 
A|---------------------------------------------| 
E|---------------------------------------------| 

    G 
E|-------8-8-------8-8-------8-8-------8-8-------8-8-| 
H|-------8-8-------8-8-------8-8-------8-8-------8-8-| 
G|-10b12-----10b12-----10b12-----10b12-----10b12-----| 
D|---------------------------------------------------| 
A|---------------------------------------------------| 
E|---------------------------------------------------| 

      C                
E|-8-------------------------| 
H|-8-10b11r10-8--------------| 
G|--------------10-8h9-------| 
D|---------------------10-10-| 
A|---------------------------| 
E|---------------------------| 

Compartilhe esta música: novo

QR Code
Copiar