Are You

Bob Seger

Tom: D
id tab it since no one else has. its in drop-d. 


intro/verse 
  D      E  F  D              D      E  F  D 

|------------------2------------------------------------------------------| 
|------------------3------------------------------------------------------| 
|------------------2------------------------------------------------------| 
|-0--0---2--3--0---0----------0--0---2--3--0------------------------------| 
|-0--0---2--3--0--------------0--0---2--3--0------------------------------| 
|-0--0---2--3--0--------------0--0---2--3--0------------------------------| 


Chorus 
  F  D     E  F D             F  D   E  F  D 

|-------------------2-----------------------------------------------------| 
|-------------------3-----------------------------------------------------| 
|-------------------2-----------------------------------------------------| 
|-3-0--0---2-3--0---0---------3--0---2--3--0------------------------------| 
|-3-0--0---2-3--0-------------3--0---2--3--0------------------------------| 
|-3-0--0---2-3--0-------------3--0---2--3--0------------------------------| 



bridge 
  G    A     D     E  F  D     G    A     C    D 

|-------------------------------------------------------------------------| 
|-------------------------------------------------------------------------| 
|-------------------------------------------------------------------------| 
|-5----7-----0-0---2--3--0-----5----7----10----0-0-0----------------------| 
|-5----7-----0-0---2--3--0-----5----7----10----0-0-0----------------------| 
|-5----7-----0-0---2--3--0-----5----7----10----0-0-0----------------------| 


song structure: 
intro 
verse 
Chorus 
verse 
Chorus 
bridge 
solo (just mess around in d) 
verse 
Chorus 
Chorus 

Compartilhe esta música: novo

QR Code
Copiar