Hurting Inside

Bob Marley

Tom: F#m
---------------------------------------------------------------------------- 
			     HURTING INSIDE - Bob Marley 
---------------------------------------------------------------------------- 
Tabbed by:BIGBOPPA 
Tuning:Standard 
 
 
   F#m            E             D                        E 
 
e|--6--6----6--6--4--4----4--4--2--2----2--2--2--2----2--4--| 
B|--8--8----8--8--5--5----5--5--3--3----3--3--3--3----3--5--| 
G|--7--7----7--7--4--4----4--4--2--2----2--2--2--2----2--4--|  Intro 
D|--8--8----8--8--6--6----6--6--4--4----4--4--4--4----4--6--| 
A|----------------------------------------------------------| 
E|----------------------------------------------------------| 
 
 
    A             E             D                      E 
 
e|--5-5----5-5----4-4----4-4----2-2----2-2----2-2----2-4----| 
B|--5-5----5-5----5-5----5-5----3-3----3-3----3-3----3-5----| 
G|--6-6----6-6----4-4----4-4----2-2----2-2----2-2----2-4----|  Verse 
D|--7-7----7-7----6-6----6-6----4-4----4-4----4-4----4-6----| 
A|----------------------------------------------------------| 
E|----------------------------------------------------------| 
 
 
   F#m         E               D                          E 
 
e|--6-6-6-6----4--4----4--4----2--2----2--2----2--2----2-4--| 
B|--8-8-8-8----5--5----5--5----3--3----3--3----3--3----3-5--| 
G|--7-7-7-7----4--4----4--4----3--2----2--2----2--2----2-4--|  Chorus 
D|--8-8-8-8----6--6----6--6----4--4----4--4----4--4----4-6--| 
A|----------------------------------------------------------| 
E|----------------------------------------------------------| 
 
 
    A                      G    D                      E 
 
e|--5-5----5-5----5-5----5-3----2-2----2-2----2-2----2-4----| 
B|--5-5----5-5----5-5----5-3----3-3----3-3----3-3----3-5----| 
G|--6-6----6-6----6-6----6-4----2-2----2-2----2-2----2-4----|  Bridge  
D|--7-7----7-7----7-7----7-5----4-4----4-4----4-4----4-6----| 
A|----------------------------------------------------------| 
E|----------------------------------------------------------| 
 
============================================================================ 

Compartilhe esta música: novo

QR Code
Copiar