Get Up Stand UpTablatura Verificada

Bob Marley

Tom: Cm
intro  
 ----------------------------------- 
 ----------------------------------- 
 ----------------------------------- 
 ----------------------------------- 
 ----------------------------------- 
 -x-6-6-x-6-6---x-6-8---x-6-6-x-6-6- 

this is played twice (tocar 2x) 


tthe other guitar plays Cm for the rest of the song (tocar Cm durante toda a música) 

Cm looks like this... 
                     -8- 
                     -8- 
                     -8- 
                     -6- 
                     -6- 
                     -8- 

chorus riff 
-----|-------------|-----------|-------------|------------- 
-----|-------------|-----------|-------------|------------- 
-----|-------------|-----------|-------------|------------- 
-----|-5-----------|---5-------|-5-----------|-------5---3- 
-----|---6-5-6-5---|-6---------|---6-5-6-5---|-----6---6--- 
-6-8-|-----------8-|-----3-6-8-|-----------8-|-8-8--------- 


verse riff 
-----------|------------ 
-----------|------------ 
---------7-|------------ 
-------5---|-8-----5---- 
---6-8-----|---6-8------ 
-8---------|--------6-8- 

Compartilhe esta música: novo

QR Code
Copiar