Burnin and lootin/intro

Bob Marley

Tom: G
  G      Bm                   G        Bm                     
                         
Intro:	E:------3--------2----------(2)------3--------2----------(2)------ 
	B:------3--------3-------(3)---------3--------3-------(3)--------- 
	G:------4----2-0-4----(4)------------4----2-0-4----(4)------------ 
	D:--2-4-5--------4-(4)-----------2-4-5--------4-(4)--------------- 
	A:------5--------2-------------------5--------2------------------- 
	E:------3--------2-------------------3--------2------------------- 
              
                G       Bm                     E              
 
        E:------3--------2----------(2)--------0----------- 
	B:------3--------3-------(3)-----------0----------- 
	G:------4----2-0-4----(4)--------------1----------- 
	D:--2-4-5--------4-(4)-------------2-0-2----------- 
	A:------5--------2---------------------2----------- 
	E:------3--------2---------------------0----------- 
 
 

Compartilhe esta música: novo

QR Code
Copiar