Song to Woody

Bob Dylan

 
NOTE! No two verses are alike in this song. Every verse has it's own little variations.  
difference that should not be left out is that in verses 1,4 and 5, the 2nd chord in the  
is a D based chord but in verses 2 and 3 it's a C, this is not a mistake! 
I haven't tabbed every strum, just the embelishments and a suggestion of the chords that  
be strummed in between. 
I could only fit the words that occur on changes beneath the tab! 

h=hammer on 

  G              D/f#    G 
E|3--3-3-----3-3-----------3-3-----3------3-3---3-3-| 
B|0--0-0-----0-0-----------0-0-----0------0-0---0-0-| 
G|0--0-0-----0-0-----------0-0-----0------0-0---0-0-| 
D|0--0-0-----0-0----0-0--------0h2--------0-0-0-----| 
A|2------0h2-----0--0-0--------------2--------------| 
E|3-----------------2-2--3--------------3-----------| 
                                                 I'm 
Verse1: 
  G              D/f#  G 
E|---3-3-----3-3---2-2---3-3-----3------3-3---3-3-| 
B|---0-0-----0-0---3-3---0-0-----0------0-0---0-0-| 
G|---0-0-----0-0---2-2---0-0-----0------0-0---0-0-| 
D|-------0h2-------0-0-------0h2------------0-----| 
A|---------------------------------2--------------| 
E|3--------------2-----3--------------3-----------| 
  out..  thous.. mile..home 

  C     C/b   D/a   G 
E|--0-0---0-0---2-2---3-3-----3------3-3---3-3---| 
B|--1-1---1-1---3-3---0-0-----0------0-0---0-0---| 
G|--0-0---0-0---2-2---0-0-----0------0-0---0-0---| 
D|--2-2---0-0---0-0-------0h2------------0-------| 
A|3-----2-----0-----------------2----------------| 
E|------------------3--------------3-------------| 
  walk..road..men.. down                      I'm 

  G              C      G 
E|---3-3-----3-3---0-0----3-3-----3------3-3---3-3-| 
B|---0-0-----0-0---1-1----0-0-----0------0-0---0-0-| 
G|---0-0-----0-0---0-0----0-0-----0------0-0---0-0-| 
D|-------0h2-------2-2--------0h2------------0-----| 
A|---------------3------------------2--------------| 
E|3---------------------3--------------3-----------| 
  seein. world.. peop.. things                 here 

  G                                    D/a   G 
E|---3-3-----3-3-----3-----3-3-----3-3---2-2---3-3-----3-----3-3---3-3--| 
B|---0-0-----0-0-----0-----0-0-----0-0---3-3---0-0-----0-----0-0---0-0--| 
G|---0-0-----0-0-----0-----0-0-----0-0---2-2---0-0-----0-----0-0---0-0--| 
D|-------0h2-----0h2---0h2---------------0-0-------0h2------------------| 
A|-----------------------------0h2-----0-----------------2-------2------| 
E|3------------------------------------------3-------------3------------| 
  paupers..............       peasan.. prin..kings 

Verse 2: 
  G              C     G 
E|---3-3-----3-3---0-0---3-3-----3------3-3---3-3-| 
B|---0-0-----0-0---1-1---0-0-----0------0-0---0-0-| 
G|---0-0-----0-0---0-0---0-0-----0------0-0---0-0-| 
D|-----------------2-2-------0h2------------0-----| 
A|--------2------3-----------------2--------------| 
E|3--------------------3--------------3-----------| 
  Hey..   Guth.. wrot..song                  bout a 

  C     C/b   D     G 
E|--0-0---0-0---2-2---3-3-----3------3-3---3-3---| 
B|--1-1---1-1---3-3---0-0-----0------0-0---0-0---| 
G|--0-0---0-0---2-2---0-0-----0------0-0---0-0---| 
D|--2-2---0-0-0-0-0-------0h2------------0-------| 
A|3-----2-----------------------2----------------| 
E|------------------3--------------3-------------| 
  funn..world.comi.along                    seems 

  G              C     G 
E|---3-3-----3-3---0-0---3-3-----3------3-3---3-3-| 
B|---0-0-----0-0---1-1---0-0-----0------0-0---0-0-| 
G|---0-0-----0-0---0-0---0-0-----0------0-0---0-0-| 
D|-----------------2-2-------0h2------------0-----| 
A|-------0h2-----3-----------------2--------------| 
E|3--------------------3--------------3-----------| 
  sick.. hungry..tired.torn                     it 

  G                                    D/a   G 
E|---3-3-----3-3-----3-----3-3-----3-3---2-2---3-3-----3-----3-3---3-3--| 
B|---0-0-----0-0-----0-----0-0-----0-0---3-3---0-0-----0-----0-0---0-0--| 
G|---0-0-----0-0-----0-----0-0-----0-0---2-2---0-0-----0-----0-0---0-0--| 
D|-------0h2-----0h2---0h2---------------0-0-------0h2------------------| 
A|-----------------------------0h2-----0-----------------2--------------| 
E|3------------------------------------------3-------------3-----3------| 
  looks like.........    it's dyin...  hardl.born 

Verse 3: 
  G              C     G 
E|---3-3-----3-3---0-0---3-3-----3------3-3-----3-3-| 
B|---0-0-----0-0---1-1---0-0-----0------0-0-----0-0-| 
G|---0-0-----0-0---0-0---0-0-----0------0-0-----0-0-| 
D|-----------------2-2--------0----0h2------0h2-----| 
A|---------------3----------------------------------| 
E|3-------3------------3----------------------------| 
  Hey..  Guth..  know..know                     all.. 

  C           D/f#  G 
E|--0-0---0-0---2-2---3-3-----3------3-3-----3-3------| 
B|--1-1---1-1---3-3---0-0-----0------0-0-----0-0------| 
G|--0-0---0-0---2-2---0-0--0--0------0-0-----0-0------| 
D|2-2-2---2-2---0-0-----------------------------------| 
A|3-----3-----------------------0h2------0h2----------| 
E|------------2-----3---------------------------------| 
  thin..say.. many..more                         I'm 

  G              C     G 
E|---3-3-----3-3---0-0---3-3-----3-3-----3-3-----3-3-| 
B|---0-0-----0-0---1-1---0-0-----0-0-----0-0-----0-0-| 
G|---0-0-----0-0---0-0---0-0-----0-0-----0-0-----0-0-| 
D|-----------------2-2-------------------------------| 
A|-------0h2-----3-----------0h2-----0h2-----0h2-----| 
E|3--------------------3-----------------------------| 
  sing..song..   cant. enough                    cos.. 

  G                                    D/a   G 
E|---3-3-----3-3-----3-3---3-3-----3-3---2-2---3-3-----3-----3-3---3-3--| 
B|---0-0-----0-0-----0-0---0-0-----0-0---3-3---0-0-----0-----0-0---0-0--| 
G|---0-0-----0-0-----0-0---0-0-----0-0---2-2---0-0-----0-----0-0---0-0--| 
D|---------------------------------------0-0-------0h2-----------0------| 
A|-------0h2-----0h2------------2------0-----------------2--------------| 
E|3----------------------3-------------------3-------------3------------| 
  not.........             many men..  thin..done                  here's.. 

Verse 4: 
  G              D/f#  G 
E|---3-3-----3-3---2-2---3-3-----3------3-3---3-3-| 
B|---0-0-----0-0---3-3---0-0-----0------0-0---0-0-| 
G|---0-0-----0-0---2-2---0-0-----0------0-0---0-0-| 
D|-----------------0-0-------0h2------------0-----| 
A|-------0h2-----------------------2--------------| 
E|3--------------2-----3--------------3-----------| 
  Sisco..Sonny.. Led.. too                     and.. 

  C     C/b   D     G 
E|--0-0---0-0---2-2---3-3---3-3------3-3-----3-3---| 
B|--1-1---1-1---3-3---0-0---0-0------0-0-----0-0---| 
G|--0-0---0-0---2-2---0-0---0-0---0--0-0-----0-0---| 
D|--2-2---0-0-0-0-0-------0-----2------------------| 
A|3-----2------------------------------------------| 
E|------------------3--------------------0h3-------| 
  all.. peop..trav..you 

  G             C     G 
E|----3-3---3-3---0-0---3-3-----3-3-----3-3-----3-3-| 
B|----0-0---0-0---1-1---0-0-----0-0-----0-0-----0-0-| 
G|----0-0---0-0---0-0---0-0-----0-0-----0-0-----0-0-| 
D|----------------2-2-------0h2-----0h2-------------| 
A|0h2-----------3---------------------------0h2-----| 
E|--------3-----------3-----------------------------| 
  Heres.. heart.hands.men                        that 

  G                                      D     G 
E|---3-3-----3-3-----3-3-----3-3-----3-3---2-2---3-3---3------3-3---3-3--| 
B|---0-0-----0-0-----0-0-----0-0-----0-0---3-3---0-0---0------0-0---0-0--| 
G|---0-0-----0-0-----0-0-----0-0-----0-0---2-2---0-0---0----0-0-0---0-0--| 
D|---------------------------------------0-----------0----2--------------| 
A|-------0h2-----0h2-----0h2---------------------------------------------| 
E|3------------------------------3-------------3------------------3------| 
  come.......              with..dust... gone..wind                   I'm 

Verse 5: 
  G              D/a   G 
E|---3-3-----3-3---2-2---3-3-----3-------3-3-----3-3-| 
B|---0-0-----0-0---3-3---0-0-----0-------0-0-----0-0-| 
G|---0-0-----0-0---2-2---0-0-----0-------0-0-----0-0-| 
D|-----------------0-0-------0h2---0-----------------| 
A|-------0h2-----0-------------------0h2-----0h2-----| 
E|3--------------------3-----------------------------| 
  leav.. tomor...could.today 

  C     C/b   D     G 
E|--0-0---0-0---2-2---3-3-----3-3-----3-3-----3-3---| 
B|--1-1---1-1---3-3---0-0-----0-0-----0-0-----0-0---| 
G|--0-0---0-0---2-2---0-0-----0-0-----0-0-----0-0---| 
D|--2-2---0-0-0-0-0-------0h2-----0h2---------------| 
A|3-----2---------------------------------0h2-------| 
E|------------------3-------------------------------| 
  some..down..road..day                           the 

  G              C     G 
E|---3-3-----3-3---0-0---3-3-----3-3-----3-3-----3-3-| 
B|---0-0-----0-0---1-1---0-0-----0-0-----0-0-----0-0-| 
G|---0-0-----0-0---0-0---0-0-----0-0-----0-0-----0-0-| 
D|-----------------2-2-------------------------------| 
A|-------0h2-----3-----------0h2-----0h2-----0h2-----| 
E|3--------------------3-----------------------------| 
  very.. thing.. I'd.. do                        is to 

  G                                      D     G                  D/f#  G 
E|---3-3-----3-3-----3-3-----3-3-----3-3-2-2-2---3-3---3------3-3---2-2---3| 
B|---0-0-----0-0-----0-0-----0-0-----0-0-3-3-3---0-0---0------0-0---3-3---0| 
G|---0-0-----0-0-----0-0-----0-0-----0-0-2-2-2---0-0---0------0-0---2-2---0| 
D|------------------------0--------------0-----------0--------------0-0---0| 
A|-------0h2-----0h2-------------0h2---------------------0h2--------------2| 
E|3--------------------------------------------3-----------------0h2----3-3| 
  say..........            I be..hit..   hard..too. 

Compartilhe esta música: novo

QR Code
Copiar