Sabbara Cadabbra INTRO lick

Black Sabbath

Corrected intro lick (Standard tuning - transpose if using the black sabbath 'slack tuning') 
 
 
--------------------5--5----------------------- 
----------5---8-------------------------------- 
---7-8-----------------------------------------    Play this 2 times then play next lick 
------------------------------------------------- 
------------------------------------------------- 
------------------------------------------------- 
 
 
------------------------------------------------ 
---------5------------------------------------- 
-7--8-------8--7--5------------------------    Play this twice and then repeat the thing 
-------------------------7-----7-------------- 
----------------------------------------------- 
------------------------------------------------ 

Compartilhe esta música: novo

QR Code
Copiar