Call Of The Wild

Black Sabbath

	                                  | *1&2*  ||  **3** 
e|----------------------------------------||----------------| 
B|----------------------------------------||----------------| 
G|--4--6------2-----/6--4---4--6----------||--------2-------| 
D|--4--6------2-----/6--4---4--6------2---||------2-2-------| 
A|--2--4----0---00----------2--4--4-2---4-||--4-2---0-------| 
E|----------------------------------------||----------------| 

'in this last and final hour...' 
e|----------------------------------------------------------| 
B|--------------------------------------------5-4-----------| 
G|-6----------------4---6-----------4--2--6-------4---------| 
D|-6----------------4---6-----------4--2--6---------4-2-----| 
A|-4----------------2---4-----------2--0--4-----------------| 
E|----------------------------------------------------------| 

                  'its the call of the wild' 
e|----------------------------------------------------------| 
B|----------------------------------------------------------| 
G|----------------------------------------------------------| 
D|---4-3-4-3h4p3---3--4--------4-3-4-3h4p3------------------|  
A|-2-------------5-----------2-------------5--4-------------| 
E|-----------------------------------------------4-3-2------| 

'calling you, hero...' 
e|----------------------------------------------------------| 
B|----------------------------------------------------------| 
G|--7------4--6------2-----/6--4--4--6----------------------| 
D|--7--7---4--6------2-----/6--4--4--6-------2--------------| 
A|--5--7---2--4----0---0-0--------2--4---4-2---4------------| 
E|-----5----------------------------------------------------| 

e|----------------------------------------------------------| 
B|-----6-----6-----6-----6-----6----------------------------| 
G|---7-----7-----7-----7-----7------------------------------| 
D|-0-----0-----0-----0-----0--------------------------------| 
A|----------------------------------------------------------| 
E|----------------------------------------------------------| 

e|-------8--5-----------------------------------------------| 
B|-----6------6----------------8--6-------------------------| 
G|---7----------7-----5-7-8----------75-7-------------------| 
D|----------------------------------------------------------| 
A|----------------------------------------------------------| 
E|----------------------------------------------------------| 

(in background) 
e|-----------------------13-12-10---------------------------| 
B|-13^---13^p10-13^-13^-----------13-10---------------------| 
G|--------------------------------------12^-----------------| 
D|----------------------------------------------------------| 
A|----------------------------------------------------------| 
E|----------------------------------------------------------| 

e|----------------------------------------------------------| 
B|----------------------------------------------------------| 
G|-2-----2-------------2-----2--------------3---------------| 
D|-2-----2-------------2-----2------------3-----------------| 
A|-0-----0-------/3-1--0-----0-------/3-1-------------------| 
E|----3~-----0-1----------3~-----0-1------------------------| 

Solo: 
e|----------10----------------------------------------------| 
B|-13^-13^-----13-10----------------------------------------| 
G|-------------------12-10----12^-10------------------------| 
D|-------------------------12--------12--10-----------------| 
A|------------------------------------------1210-^^p8-------| 
E|-----------------------------------------------------10---| 

e|----------------------------------------------------------| 
B|---------------------------------13-15^---^^p13-15--------| 
G|-------------------------10-12/14-------------------------| 
D|-------------------10-12----------------------------------| 
A|------8-10p8-10/12----------------------------------------| 
E|-8-10-----------------------------------------------------| 

e|----------------------------------------------------------| 
B|-13----------13^^p10--------------------------------------| 
G|----14p12-14---------12^---^^p10----------------10--------| 
D|---------------------------------12------10h12-----12-----| 
A|----------------------------------------------------------| 
E|----------------------------------------------------------| 

e|--------------------------15^----13-12----13-12-----------| 
B|---------------------------------------15-------15--------| 
G|-12^-12-10-------------10---------------------------------| 
D|-----------12----10h12------------------------------------| 
A|----------------------------------------------------------| 
E|----------------------------------------------------------| 

e|------------------------------------------------------------| 
B|-18p17p15-13p15h13-10h13p10h13------------------------------| 
G|------------------------------12p10h12p10h12p10-------------| 
D|------------------------------------------------10h12p10h12-| 
A|------------------------------------------------------------| 
E|------------------------------------------------------------| 

e|-----------------------------------------------15^---15-17| 
B|-----------------------------------------13-15------------| 
G|--------------------------------10-12/14------------------| 
D|--------------------------10/12---------------------------| 
A|-10h12p108--8-10/12-10h12---------------------------------| 
E|-----------10---------------------------------------------| 

e|-17-20^-20^-20^--^^^p17-22^^^22---------13-12-------10----| 
B|-----------------------------------/15-------15-13^-------| 
G|----------------------------------------------------------| 
D|----------------------------------------------------------| 
A|----------------------------------------------------------| 
E|----------------------------------------------------------| 

e|----------------------------------------------------------| 
B|-13p10----------------------------------------------------| 
G|------------------10----------12^p10----10----------10----| 
D|-------12---10h12----12-10-12--------12----12-10h12-------| 
A|----------------------------------------------------------| 
E|----------------------------------------------------------| 
                 'fear of the devil...' 
e|----------------------------------------------------------| 
B|-------13-15^-^p14----------------------------------------| 
G|-12/14-----------6-------------4--6-----------------------| 
D|-----------------6-------------4--6-----------------------| 
A|-----------------4-------------2--4-----------------------| 
E|----------------------------------------------------------| 

Compartilhe esta música: novo

QR Code
Copiar