My Soul For His Glory

Behexen

Riff 1 

|----------------------------------|----------------------------------| 
|----------------------------------|----------------------------------| 
|----------------------------------|----------------------------------| 
|----------------------------------|----------------------------------| 
|--2-2-4-4-4-4-4-4-5-5-5-5-4-4-4-4-|--2-2-5-5-5-5-5-5-6-6-6-6-5-5-5-5-| 
|--0-0-2-2-2-2-2-2-2-2-2-2-2-2-2-2-|--0-0-3-3-3-3-3-3-3-3-3-3-3-3-3-3-| 
  
|----------------------------------|----------------------------------| 
|----------------------------------|----------------------------------| 
|----------------------------------|----------------------------------| 
|----------------------------------|----------------------------------| 
|--2-2-4-4-4-4-4-4-5-5-5-5-4-4-4-4-|--4-4-4-4-3-3-3-3-2-2-2-2-3-3-3-3-| 
|--0-0-2-2-2-2-2-2-2-2-2-2-2-2-2-2-|--2-2-2-2-1-1-1-1-1-1-1-1-1-1-1-1-| 

Riff 2 

|----------------------------------|----------------------------------| 
|----------------------------------|----------------------------------| 
|----------------------------------|----------------------------------| 
|----------------------------------|----------------------------------| 
|------------------4-4-4-4-3-3-----|------------------5-5-5-5-4-4-----| 
|--0-0-2-2-2-2-2-2-------------5-5-|--0-0-3-3-3-3-3-3-------------5-5-| 
  
|----------------------------------|----------------------------------| 
|----------------------------------|----------------------------------| 
|----------------------------------|----------------------------------| 
|----------------------------------|----------------------------------| 
|------------------4-4-4-4-3-3-----|------------------3-3-3-3-2-2-2-2-| 
|--0-0-2-2-2-2-2-2-------------5-5-|--0-0-1-1-1-1-1-1-----------------| 

Riff 3 
  
|------------------------------------------------| 
|------------------------------------------------| 
|------------------------------------------------| 
|--9-9-11-11-11-11-11-11-12-12-12-12-11-11-11-11-| 
|--7-7--9--9--9--9--9--9--9--9--9--9--9--9--9--9-| 
|------------------------------------------------| 

|------------------------------------------------| 
|------------------------------------------------| 
|------------------------------------------------| 
|--9-9-12-12-12-12-12-12-13-13-13-13-12-12-12-12-| 
|--7-7-10-10-10-10-10-10-10-10-10-10-10-10-10-10-| 
|------------------------------------------------| 

|------------------------------------------------| 
|------------------------------------------------| 
|------------------------------------------------| 
|--9-9-11-11-11-11-11-11-12-12-12-12-11-11-11-11-| 
|--7-7--9--9--9--9--9--9--9--9--9--9--9--9--9--9-| 
|------------------------------------------------| 
   
|----------------------------------------------| 
|----------------------------------------------| 
|----------------------------------------------| 
|--11-11-11-11-10-10-10-10-9-9-9-9-10-10-10-10-| 
|---9--9--9--9--8--8--8--8-8-8-8-8--8--8--8--8-| 
|----------------------------------------------| 

Riff 4 

|------------------------------------|------------------------------------| 
|------------------------------------|------------------------------------| 
|------------------------------------|------------------------------------| 
|------------------------------------|------------------------------------| 
|--2----2--2--2--2--2----2--2--2--2--|--3----3--3--3--3--3----3--6--5--3--| 
|--0----0--0--0--0--0----0--0--0--0--|--0----0--0--0--0--1----1--4--3--1--| 

|------------------------------------|------------------------------------| 
|------------------------------------|------------------------------------| 
|------------------------------------|------------------------------------| 
|------------------------------------|--5----5--5--5--5-------------------| 
|--2----2--2--2--2--2----2--2--2--2--|--3----3--3--3--3--5----5--6--5--3--| 
|--0----0--0--0--0--0----0--0--0--0--|-------------------3----3--4--3--1--| 

Riff 5 

|------------------------------------| 
|------------------------------------| 
|------------------------------------| 
|--------------------------10--9--7--| 
|--2----2--2--2--2--2----2--8--7--5--| 
|--0----0--0--0--0--0----0-----------| 

|----------------------------------------------| 
|----------------------------------------------| 
|----------------------------------------------| 
|--10----10--10--10--10--10----10--13--12--10--| 
|---8-----8---8---8---8---8-----8--11--10---8--| 
|----------------------------------------------| 



|-------------------------------------|-------------------------------------| 
|-------------------------------------|-------------------------------------| 
|-------------------------------------|-------------------------------------| 
|---------------------------10--9--7--|--5----5--5--5--5--5--4--2-----------| 
|--2----2--2--2--2--2----2---8--7--5--|--3----3--3--3--3--3--2--0--6--5--3--| 
|--0----0--0--0--0--0----0------------|----------------------------4--3--1--| 

Riff 6 

|------------------------------|------------------------------| 
|-----------0-------------0----|------------------------------| 
|------------------------------|-----------0-------------0----| 
|--------2-------------2-------|--------2-------------2-------| 
|-----2-------------2----------|-----2-------------2----------| 
|--0-------------0-------------|--0-------------0-------------| 
    
|------------------------------|------------------------------| 
|------------------------------|------------------------------| 
|-----------2-------------2----|-----------0------------------| 
|--------0-------------0-------|--------2-------------2--4----| 
|-----2-------------2----------|-----3-------------3----------| 
|--0-------------0-------------|--0-------------0-------------| 

Second time you play end the riff like this 

|------------------------------------| 
|------------------------------------| 
|------------------------------------| 
|--5----5--5--5--5--4----4--4--4--4--| 
|--3----3--3--3--3--3----3--3--3--3--| 
|------------------------------------| 

Riff 7 

|---------------------------------------| 
|---------------------------------------| 
|---------------------------------------| 
|--7s--9--9--9----9--10s--9--9--9----9--| 
|--5s--7--7--7----7---8s--7--7--7----7--| 
|---------------------------------------| 

|-------------------------------------------------| 
|-------------------------------------------------| 
|-------------------------------------------------| 
|--9s--10--10--12--10--10--9--10--10--12--10--10--| 
|--7s---8---8---8---8---8--8---8---8---8---8---8--|  
|-------------------------------------------------| 

|---------------------------------------| 
|---------------------------------------| 
|---------------------------------------| 
|--7s--9--9--9----9--10s--9--9--7----7--| 
|--5s--7--7--7----7---8s--7--7--5----5--| 
|---------------------------------------| 

|--------------------------------------| 
|--------------------------------------| 
|--------------------------------------| 
|--4--5--5--7--5--5--4--5--5--2--2--2--| 
|--3--3--3--3--3--3--3--3--3--0--0--0--| 
|--------------------------------------| 


 

Compartilhe esta música: novo

QR Code
Copiar