Yesterday to Tomorrow

Audioslave

ou\: Slide 
x: Mufled string 
p: Pull-off 
 
A Intro é feita pelo baixo, e o verso é tocado com 
TREMOLO. Ouça e preste bêm atenção onde é feito o 
dedilhado... 
 
Verso: 
 
e|-------0--------------0-------------0-- 
B|---------0--------------0-1-0---------- 
G|-----2-------------2----------0-------- 
D|---2-------------2----------------2---- 
A|-0-------------0----------------------- 
E|--------------------------------3------ 
                                             
e|-------0------------ 
B|-----1----1--------- 
G|---2--------2------- 
D|-3------------3-3/7- 
A|-------------------- 
E|-------------------- 
 
Beauty is what the eyes behold 
And you burn brighter than most 
 
e|-----0--------------0-------------0---- 
B|-------0--------------0-1-0------------ 
G|---2-------------2----------0---------- 
D|-2-------------2----------------2------ 
A|-------------0------------------------- 
E|------------------------------3-------- 
                                            x3 
e|--------0----- 
B|-----1----1--- 
G|---2--------2- 
D|-3------------ 
A|-------------- 
E|-------------- 
 
I chased you through the midnight streets 
To be where I could speak freely 
I didn't care what tomorrow held 
I felt the world turning only for us 
Only bliss now for you and me 
Rise up let life's kiss send us reeling 
 
Refrão: 
(Chorus) 
 
e|----5--3-------------------2- 
B|----------5--------1-----3--- 
G|-----------------0-----2----- 
D|---------------2-----0-------   x3 
A|-0-----------3--------------- 
E|----------------------------- 
 
And unlike the times before 
From yesterday comes tomorrow 
When life comes alive... 
 
e|----5--3------------------------------------------ 
B|----------5--------------------------------------- 
G|-------------------------------------------------- 
D|----------------------10\9-9\7-7-----10\9-9/12-12- 
A|-0-----------3--2--0--------------0--------------- 
E|-------------------------------------------------- 
                                             
e|--------------------------------- 
B|--------------------------------- 
G|--------------------------------- 
D|----10\9-9\7-7-----10\9-9/12-12-- 
A|-0--------------0---------------- 
E|--------------------------------- 
 
...the past moves aside 
No regrets and no remorse 
Come on... Come on... Come on... 
 
Verso: 
 
e|-------0--------------0-------------0----------- 
B|---------0--------------0-1-0-----------------1- 
G|-----2-------------2----------0-------------2--- 
D|---2-------------2----------------2-------3----- 
A|-0-------------0-------------------------------- 
E|--------------------------------3--------------- 
                                         
e|-0----------0--------------0-------------0---- 
B|---1-------------------------0-1-0------------ 
G|-----2----2---0---------2----------0---------- 
D|--------2-------------2----------------2------ 
A|--------------------0------------------------- 
E|-------------------------------------3-------- 
 
e|--------0---------- 
B|-----1----1-------- 
G|---2--------2------ 
D|-3----------------- 
A|------------------- 
E|------------------- 
 
We have more than everything 
More than man or machine 
More than luck 
More than fiction 
Higher than any religion 
 
Refrão: 
 
e|----5--3-------------------2- 
B|----------5--------1-----3--- 
G|-----------------0-----2----- 
D|---------------2-----0-------   x3 
A|-0-----------3--------------- 
E|----------------------------- 
 
And unlike the times before 
From yesterday comes tomorrow 
When life comes alive... 
 
e|----5--3-----------------3--- 
B|----------5--------1-------3- 
G|-----------------0-----2----- 
D|---------------2-----0-------   
A|-0-----------3--------------- 
E|----------------------------- 
 
...the past moves aside 
No regrets and no remorse 
 
Interlúdio: 
 
e|-1---1-------0---0-------------0-------0- 
B|-1-----1-----0-----0--------------------- 
G|-2-------2---1-------1-------2-------2--- 
D|-3---------3-2---------2---2-------2-----    
A|-3-----------2-----------0-------3------- 
E|-1-----------0--------------------------- 
                                               x2 
e|-------0--------- 
B|---------1------- 
G|-----0-----0----- 
D|---2---------2--- 
A|-3-------------3- 
E|----------------- 
 
We'll squeeze the blood out of life 
And say goodnight to the silver of old 
Even when wrong we're right 
Far beyond the world of diamonds and gold 
 
e|-1---1-------0---0----------------------------- 
B|-1-----1-----0-----0--------------------------- 
G|-2-------2---1-------1------------------------- 
D|-3---------3-2---------2----------------------- 
A|-3-----------2------------5--2--3--3--5------0- 
E|-1-----------0--------------------------------- 
 
I've come to to realize 
Where happiness lies 
I want you to know I know 
 
Pré solo: 
(Ouça a música para pegar a hora certa de abafar as 
cordas e use um oitavador nesta parte e no solo) 
 
e|------------------------------------------------- 
B|------------------------------------------------- 
G|-x-x-2h3-2-0-2-x-2-x-2-2-2-2-2h4-4-x-4-x-4-x-4-4- 
D|-----------------------------------x-2-x-2-x-2-2- 
A|------------------------------------------------- 
E|------------------------------------------------- 
 
e|------------------------------------------------- 
B|------------------------------------------------- 
G|-4-4-4/5-5-x-5-x-5-x-5-5-5-5-5/7-7-7-7-7-7/9-9-9- 
D|-2-2-2/3-3-x-3-x-3-x-3-3-3-3-3/5-5-5-5-5-5/7-7-7- 
A|------------------------------------------------- 
E|------------------------------------------------- 
 
e|----------------------------------------------- 
B|----------------------------------------------- 
G|-x-x-2-x-x-2-x-2-x-2-2-2-2-2h4-x-x-4-x-4-x-4-4- 
D|-x-x-2-x-x-2-x-2-x-2-2-2-2-2---x-x-2-x-2-x-2-2- 
A|----------------------------------------------- 
E|----------------------------------------------- 
 
e|------------------------------------------------- 
B|------------------------------------------------- 
G|-4-4-4/5-5-x-5-x-5-x-5-5-5-5-5/7-7-7-7-7-7/9-9-9- 
D|-2-2-2/3-3-x-3-x-3-x-3-3-3-3-3/5-5-5-5-5-5/7-7-7- 
A|------------------------------------------------- 
E|------------------------------------------------- 
 
Come on... Come on... Come on... 
 
Solo: 
 
e|------------------0----------------------------- 
B|----10-10-10-10p8---8-10-----10-10-10-10p8-8-10- 
G|------------------------------------------------ 
D|------------------------------------------------ 
A|-0------------------------0--------------------- 
E|------------------------------------------------ 
 
e|-10p8----------------------0---------10p8----10p8- 
B|------10-----10-10-10-10p8---8-10-10------10------ 
G|-------------------------------------------------- 
D|-------------------------------------------------- 
A|----------0--------------------------------------- 
E|-------------------------------------------------- 
 
e|----10p8------8-10----------------------0------ 
B|-10------10-8------10-----10-10-10-10p8---8-10- 
G|----------------------------------------------- 
D|----------------------------------------------- 
A|-----------------------0----------------------- 
E|----------------------------------------------- 
 
e|----------12-8-10-8-7-8-----------------15-13-12- 
B|----10-12---------------10-----10-10-10---------- 
G|------------------------------------------------- 
D|------------------------------------------------- 
A|-0--------------------------0-------------------- 
E|------------------------------------------------- 
 
e|----------------------------------12---------- 
B|-15-14-13-------------------13-15----15-13-12- 
G|----------14-13-12-13-14-15------------------- 
D|---------------------------------------------- 
A|---------------------------------------------- 
E|---------------------------------------------- 
 
e|------------------- 
B|------------------- 
G|-14-12-14---------- 
D|------------------- 
A|------------------- 
E|------------------- 
 
Refrão: 
 
e|----5--3-------------------2- 
B|----------5--------1-----3--- 
G|-----------------0-----2----- 
D|---------------2-----0-------   x3 
A|-0-----------3--------------- 
E|----------------------------- 
 
And unlike the times before 
From yesterday comes tomorrow 
When life comes alive... 
 
e|----5--3------------------------------------------ 
B|----------5--------------------------------------- 
G|-------------------------------------------------- 
D|----------------------10\9-9\7-7-----10\9-9/12-12- 
A|-0-----------3--2--0--------------0--------------- 
E|-------------------------------------------------- 
 
e|------------------------------------0-- 
B|------------------------------------1-- 
G|------------------------------------2-- 
D|----10\9-9\7-7-----10\9-9/12-12-----2-- 
A|-0--------------0-------------------0-- 
E|--------------------------------------- 
 
...the past moves aside 
No regrets and no remorse 
Come on... Come on... Come on... Uh... 
 
_______________________________________________________ 
Contribuição: Marcio Rodrigo Correia da Silva([email protected]) 

Compartilhe esta música: novo

QR Code
Copiar