Techno ted

Audioslave

/: Slide 
p: Pull-off 
 
Intro x2 
 
e|---------------|--------------------------------- 
B|---------------|--------------------------------- 
G|-4-------------|--------------------2p0---------- 
D|-4--2--2-------|----2p0-2p0-2p0-2p0----2p0------- 
A|-2--2------2---|--------------------------2p0---- 
E|----0----0---3-|-----------------------------3p0-            
       x3               x1  
                                                     
Verso x5 
 
e|----------------------------------------------- 
B|----------------------------------------------- 
G|----------------------------------------------- 
D|-------------5-------------------------------5- 
A|---7-7--7--7------7-7--7--7-5-----7-7---7--7--- 
E|-0-----0--0-----0-----0--0------0-----0---0----  
 
e|----------------- 
B|----------------- 
G|----------------- 
D|----------------- 
A|---7-7--7--7----- 
E|-0-----7--7--7--- 
 
Every single day I feel like I've been tested  
Since the day I was born  
Learned from my youth that life would tempt me with vices  
'Til my shoes are well worn  
Drilled through my head like an electric incisor  
Trying to make a new hole  
Am I a rare case or is that just what life is?  
I suppose the love's cold  
Hey  
 
Refrão x2 
 
e|---------------|--------------------------------- 
B|---------------|--------------------------------- 
G|-4-------------|--------------------2p0---------- 
D|-4--2--2-------|----2p0-2p0-2p0-2p0----2p0------- 
A|-2--2------2---|--------------------------2p0---- 
E|----0----0---3-|-----------------------------3p0-            
       x3               x1  
  
Free from the pain  
I said it once, I'll say it again  
I'm free  
From the pain  
I said it once, I'll say it again  
 
Verso x5 
 
e|----------------------------------------------- 
B|----------------------------------------------- 
G|----------------------------------------------- 
D|-------------5-------------------------------5- 
A|---7-7--7--7------7-7--7--7-5-----7-7---7--7--- 
E|-0-----0--0-----0-----0--0------0-----0---0----  
 
e|----------------- 
B|----------------- 
G|----------------- 
D|----------------- 
A|---7-7--7--7----- 
E|-0-----7--7--7--- 
 
In between all the lightbreak and daydreams  
I could never hold true  
But at night you could live in the moment  
'Til the vulture finds you  
'Cause every single day you feel like you've been sliding  
Since the day you were born  
Is it cruel or is that just what life is?  
Only in death will you know  
Hey  
 
Refrão x2 
 
e|---------------|--------------------------------- 
B|---------------|--------------------------------- 
G|-4-------------|--------------------2p0---------- 
D|-4--2--2-------|----2p0-2p0-2p0-2p0----2p0------- 
A|-2--2------2---|--------------------------2p0---- 
E|----0----0---3-|-----------------------------3p0-            
       x3               x1  
 
Free from the pain  
I said it once, I'll say it again  
I'm free  
From the pain  
I said it once, I'll say it again 
 
Interlúdio: 
 
e|------------------------------------------- 
B|------7--------------------7--------------- 
G|-9-7----7--9-7--9/----9-7----7--9-7--9/---- 
D|------------------------------------------- 
A|------------------------------------------- 
E|------------------------------------------- 
 
e|--------------------------------------------- 
B|------7--------------------7----------------- 
G|-9-7----7--9-7--9/----9-7----7--9-7--9/----9- 
D|-------------------------------------------9- 
A|-------------------------------------------7- 
E|-------------------------------------------0- 
 
e|--------------------------------------------- 
B|--------------------------------------------- 
G|--------------------------------2p0---------- 
D|----------------2p0-2p0-2p0-2p0----2p0------- 
A|--------------------------------------2p0---- 
E|-----------------------------------------3p0- 
                                                                        
Refrão x2 
 
e|---------------|--------------------------------- 
B|---------------|--------------------------------- 
G|-4-------------|--------------------2p0---------- 
D|-4--2--2-------|----2p0-2p0-2p0-2p0----2p0------- 
A|-2--2------2---|--------------------------2p0---- 
E|----0----0---3-|-----------------------------3p0-            
       x3               x1  
 
Free from the pain  
I said it once, I'll say it again  
I'm free  
From the pain  
I said it once, I'll say it again 
 
Nota final: 
 
e|------------- 
B|------------- 
G|------------- 
D|-2----------- 
A|-2----------- 
E|-0----------- 
 
Obs: Essa música ainda não têm versão de estúdio, e as versões  
ao vivo podem ter algumas diferenças entre uma e outra. 

Compartilhe esta música: novo

QR Code
Copiar