Out of Exile

Audioslave

\: Slide 
h: Hammer-on 
x: Mufled strings 
 
Intro: 
 
e|---------------------------- 
B|---------------3-6------3--- 
G|----------5-----------4----- 
D|-3-7----7-------------------  x2 
A|---------------------------- 
D|---------------------------- 
 
Riff Principal: 
 
e|----------------------------------------------- 
B|----------------------------------------------- 
G|----------------------------------------------- 
D|-10\---------------3--------------0------------ 
A|-10\--3h5-5-5-x--------3----3h5-3-------------- 
D|-10\------------3----3---5----------0-0-3h5-0-- 
 
e|----------------------------------------------- 
B|----------------------------------------------- 
G|----------------------------------------------- 
D|---------------3--------------0------------10\- 
A|--3h5-5-5-x--------3----3h5-3--------------10\- 
D|------------3----3---5----------0-0-3h5-0--10\- 
 
e|------------------------------------------2-- 
B|------------------------------------------3-- 
G|--------------------------------------------- 
D|--------------3--------------0--------------- 
A|-3h5-5-5-x--------3----3h5-3----------------- 
D|-----------3----3---5----------0-0-3h5-0----- 
 
e|------------------------------------------- 
B|------------------------------------------- 
G|------------------------------------------- 
D|--------------3--------------0------------- 
A|-3h5-5-5-x--------3----3h5-3--------------- 
D|-----------3----3---5----------0-0-3h5-0--- 
 
Verso: 
 
(De vez em quando o Tom Morello dá uma quebrada nas notas) 
 
e|---------------------------------5-5-5-5-5-5-5-5 
B|-3-3-3-3-3-3-3-3-3-3-3-3-3-3-3-3---------------- 
G|------------------------------------------------ 
D|------------------------------------------------ 
A|------------------------------------------------ 
D|------------------------------------------------ 
 
e|-5-5-5-5-5-5-5-5-3-3-3-3-3-3-3-3-3-3-3-3-3-3-3-3 
B|------------------------------------------------ 
G|------------------------------------------------ 
D|------------------------------------------------ 
A|------------------------------------------------ 
D|------------------------------------------------ 
 
e|-1-1-1-1-1-1-1-1-1-1-1-1-1-1-0-0- 
B|--------------------------------- 
G|--------------------------------- 
D|---------------------------------  x4 
A|--------------------------------- 
D|--------------------------------- 
 
Refrão: 
 
e|------------------------------------------------ 
B|------------------------------------------------ 
G|------------------------------------------------ 
D|-10\---------------3--------------0------------- 
A|-10\--3h5-5-5-x--------3----3h5-3--------------- 
D|-10\------------3----3---5----------0-0-3h5-0--- 
 
e|------------------------------------------------- 
B|------------------------------------------------- 
G|------------------------------------------------- 
D|--------------3-------x-x-x--x--x-x-x-x---------- 
A|-3h5-5-5-x--------3---x-x-x--x--x-x-x-x-0-----3-5 
D|-----------3----3---5-x-x-x--x--x-x-x-x---3-5---- 
 
e|-------------------------------------------------- 
B|-------------------------------------------------- 
G|-------------------------------------------------- 
D|-0h3--------------3--------------0------------10\- 
A|-----3h5-5-5-x--------3----3h5-3--------------10\- 
D|---------------3----3---5----------0-0-3h5-0--10\- 
 
e|------------------------------------------------- 
B|------------------------------------------------- 
G|------------------------------------------------- 
D|--------------3-------x-x-x--x--x-x-x-x---------- 
A|-3h5-5-5-x--------3---x-x-x--x--x-x-x-x-0-----3-5 
D|-----------3----3---5-x-x-x--x--x-x-x-x---3-5---- 
 
e|---------------------------- 
B|---------------------------- 
G|---------------------------- 
D|-0h3------------------------ 
A|---------------------------- 
D|---------------------------- 
 
Verso: 
 
e|---------------------------------5-5-5-5-5-5-5-5 
B|-3-3-3-3-3-3-3-3-3-3-3-3-3-3-3-3---------------- 
G|------------------------------------------------ 
D|------------------------------------------------ 
A|------------------------------------------------ 
D|------------------------------------------------ 
 
e|-5-5-5-5-5-5-5-5-3-3-3-3-3-3-3-3-3-3-3-3-3-3-3-3 
B|------------------------------------------------ 
G|------------------------------------------------ 
D|------------------------------------------------ 
A|------------------------------------------------ 
D|------------------------------------------------ 
 
e|-1-1-1-1-1-1-1-1-1-1-1-1-1-1-0-0- 
B|--------------------------------- 
G|--------------------------------- 
D|---------------------------------  x4 
A|--------------------------------- 
D|--------------------------------- 
 
Refrão: 
 
e|------------------------------------------------ 
B|------------------------------------------------ 
G|------------------------------------------------ 
D|-10\---------------3--------------0------------- 
A|-10\--3h5-5-5-x--------3----3h5-3--------------- 
D|-10\------------3----3---5----------0-0-3h5-0--- 
 
e|------------------------------------------------- 
B|------------------------------------------------- 
G|------------------------------------------------- 
D|--------------3-------x-x-x--x--x-x-x-x---------- 
A|-3h5-5-5-x--------3---x-x-x--x--x-x-x-x-0-----3-5 
D|-----------3----3---5-x-x-x--x--x-x-x-x---3-5---- 
 
e|-------------------------------------------------- 
B|-------------------------------------------------- 
G|-------------------------------------------------- 
D|-0h3--------------3--------------0------------10\- 
A|-----3h5-5-5-x--------3----3h5-3--------------10\- 
D|---------------3----3---5----------0-0-3h5-0--10\- 
 
e|------------------------------------------------- 
B|------------------------------------------------- 
G|------------------------------------------------- 
D|--------------3-------x-x-x--x--x-x-x-x---------- 
A|-3h5-5-5-x--------3---x-x-x--x--x-x-x-x-0-----3-5 
D|-----------3----3---5-x-x-x--x--x-x-x-x---3-5---- 
 
e|---------------------------- 
B|---------------------------- 
G|---------------------------- 
D|-0h3------------------------ 
A|---------------------------- 
D|---------------------------- 
 
Solo... 
 
Agora vem as mesmas notas da intro: 
 
e|---------------------------- 
B|---------------3-6------3--- 
G|----------5-----------4----- 
D|-3-7----7-------------------  x2 
A|---------------------------- 
D|---------------------------- 
 
Refrão: 
 
e|------------------------------------------------ 
B|------------------------------------------------ 
G|------------------------------------------------ 
D|-10\---------------3--------------0------------- 
A|-10\--3h5-5-5-x--------3----3h5-3--------------- 
D|-10\------------3----3---5----------0-0-3h5-0--- 
 
e|------------------------------------------------- 
B|------------------------------------------------- 
G|------------------------------------------------- 
D|--------------3-------x-x-x--x--x-x-x-x---------- 
A|-3h5-5-5-x--------3---x-x-x--x--x-x-x-x-0-----3-5 
D|-----------3----3---5-x-x-x--x--x-x-x-x---3-5---- 
 
e|-------------------------------------------------- 
B|-------------------------------------------------- 
G|-------------------------------------------------- 
D|-0h3--------------3--------------0------------10\- 
A|-----3h5-5-5-x--------3----3h5-3--------------10\- 
D|---------------3----3---5----------0-0-3h5-0--10\- 
 
e|------------------------------------------------- 
B|------------------------------------------------- 
G|------------------------------------------------- 
D|--------------3-------x-x-x--x--x-x-x-x---------- 
A|-3h5-5-5-x--------3---x-x-x--x--x-x-x-x-0-----3-5 
D|-----------3----3---5-x-x-x--x--x-x-x-x---3-5---- 
 
e|-------------------------------------------------- 
B|-------------------------------------------------- 
G|-------------------------------------------------- 
D|-0h3--------------3--------------0------------10\- 
A|-----3h5-5-5-x--------3----3h5-3--------------10\- 
D|---------------3----3---5----------0-0-3h5-0--10\- 
 
e|---------------------------------------------- 
B|---------------------------------------------- 
G|---------------------------------------------- 
D|--------------3--------------0------------10\- 
A|-3h5-5-5-x--------3----3h5-3--------------10\- 
D|-----------3----3---5----------0-0-3h5-0--10\- 
 
e|------------------------------------------2- 
B|------------------------------------------3- 
G|-------------------------------------------- 
D|--------------3--------------0-------------- 
A|-3h5-5-5-x--------3----3h5-3---------------- 
D|-----------3----3---5----------0-0-3h5-0---- 
 
e|----------------------- 
B|----------------------- 
G|----------------------- 
D|--------------3-------- 
A|-3h5-5-5-x--------3---- 
D|-----------3----3---5-- 
 
Pra finalizar abafe as cordas da guitarra e toque no rítmo da bateria. 

Compartilhe esta música: novo

QR Code
Copiar