Heaven's Dead

Audioslave

Tom: A
h: Hammer-on 
\ou/: Slide 
p: Pull-off 
 
Intro/Verso: 
 
Toque 3 vezes, sendo que na terceira há uma pequena alteração... 
 
e|------------------------------------------------ 
B|------------------------------------------------ 
G|------------------------------------------------ 
D|-4----4---4--4h5---5---5\2-2----2---2--2h4----4- 
A|----0---0--------0---0--------0---0---------0--- 
E|------------------------------------------------ 
 
e|------------------------------------------------- 
B|------------------------------------------------- 
G|------------------------------------------------- 
D|---4\--0----0---0--0h1----1---1\------0----0---0- 
A|-0--------0---0---------0---0----2-4-----0---0--- 
E|------------------------------------------------- 
 
...exatamente na hora em que o Chris Cornell canta 'lose sight': 
 
Troque esta parte...      ...por esta aqui. 
e|------------------      e|------------------- 
B|------------------      B|------------------- 
G|------------------      G|------------------- 
D|-2----2---2--2h4--      D|-2----2---2/7-7\4-- 
A|----0---0---------      A|----0---0---------- 
E|------------------      E|------------------- 
 
Anchor the night, open the sky 
Hide in the hours before sunrise 
Pray for me not, I won't lose sight 
Of where I belong and where you lie 
 
Refrão: 
 
e|------------------------------------------- 
B|------------------------------------------- 
G|-----------------------------------------5- 
D|-----------------------------------------3- 
A|-5-5-5-5-5-5-5-5-5-5-7-7-7-7-7-7-7-7-7-7--- 
E|-3-3-3-3-3-3-3-3-3-3-5-5-5-5-5-5-5-5-5-5--- 
 
Heaven's dead when you get sad 
I see your wishes fly 
Out of time 
For the best time you've had 
 
Verso: 
 
No mesmo esquema anterior toque 3 vezes, sendo que na terceira a alteração vem na hora em que ele canta 'To the air' 
 
e|------------------------------------------------ 
B|------------------------------------------------ 
G|------------------------------------------------ 
D|-4----4---4--4h5---5---5\2-2----2---2--2h4----4- 
A|----0---0--------0---0--------0---0---------0--- 
E|------------------------------------------------ 
 
e|------------------------------------------------- 
B|------------------------------------------------- 
G|------------------------------------------------- 
D|---4\--0----0---0--0h1----1---1\------0----0---0- 
A|-0--------0---0---------0---0----2-4-----0---0--- 
E|------------------------------------------------- 
 
Shipwreck the sun, I'm on your side 
An army of one, onward we'll ride 
And whisper your songs, birds to the air 
We'll bury all of our burdens there 
 
Refrão: 
 
e|----------------------------------------- 
B|----------------------------------------- 
G|----------------------------------------- 
D|----------------------------------------- 
A|-5-5-5-5-5-5-5-5-5-5-7-7-7-7-7-7-7-7-7-7- 
E|-3-3-3-3-3-3-3-3-3-3-5-5-5-5-5-5-5-5-5-5- 
 
e|-----------------------------0----------- 
B|-----------------------------0----------- 
G|-5-5-5-5-5-5-5-5-5-5---------1----------- 
D|-3-3-3-3-3-3-3-3-3-3---------2----------- 
A|---------------------2-2-2-2---2-2-2-2-2- 
E|---------------------0-0-0-0---0-0-0-0-0- 
 
e|------------------------------------------- 
B|------------------------------------------- 
G|-----------------------------------------5- 
D|-----------------------------------------3- 
A|-5-5-5-5-5-5-5-5-5-5-7-7-7-7-7-7-7-7-7-7--- 
E|-3-3-3-3-3-3-3-3-3-3-5-5-5-5-5-5-5-5-5-5--- 
 
Heaven's dead when you get sad 
I see your wishes fly 
Out of time 
For the best time you've had 
 
Solo: 
 
e|----10----------------------------------------- 
B|----------10---8p7-5--------------------10----- 
G|-7-----7-------------9b-11-11p10p9-7--7-----7-- 
D|-x--------------------------------------------- 
A|----------------------------------------------- 
E|----------------------------------------------- 
 
e|---------------------------------14----------- 
B|-10p8-7-8-7---7--8-7----------15-----15------- 
G|------------9---------9--7-14-----------14---- 
D|---------------------------------------------- 
A|---------------------------------------------- 
E|---------------------------------------------- 
 
Intrelúdio: 
 
e|---------------------------------------- 
B|---------------------------------------- 
G|-11\--9\--7-6-4-9--11-7---------------3- 
D|----------------------------------3-5---  x4 
A|-9\---7\--5-4-2-7--9--5-------3-5------- 
E|---------------------------------------- 
 
Obs: A última ponte antes do Refrão é assim: 
 
e|--------------- 
B|--------------- 
G|--------------- 
D|-----3-5\------ 
A|-3-5----------- 
E|--------------- 
 
For the best time you've had 
The best time you've had 
Heaven's dead when you get sad 
 
Refrão: 
 
e|----------------------------------------- 
B|----------------------------------------- 
G|----------------------------------------- 
D|----------------------------------------- 
A|-5-5-5-5-5-5-5-5-5-5-7-7-7-7-7-7-7-7-7-7- 
E|-3-3-3-3-3-3-3-3-3-3-5-5-5-5-5-5-5-5-5-5- 
 
e|-----------------------------0----------- 
B|-----------------------------0----------- 
G|-5-5-5-5-5-5-5-5-5-5---------1----------- 
D|-3-3-3-3-3-3-3-3-3-3---------2----------- 
A|---------------------2-2-2-2---2-2-2-2-2- 
E|---------------------0-0-0-0---0-0-0-0-0- 
 
e|----------------------------------------- 
B|----------------------------------------- 
G|----------------------------------------- 
D|----------------------------------------- 
A|-5-5-5-5-5-5-5-5-5-5-7-7-7-7-7-7-7-7-7-7- 
E|-3-3-3-3-3-3-3-3-3-3-5-5-5-5-5-5-5-5-5-5- 
 
e|---------------------- 
B|---------------------- 
G|-5-5-5-5-5-5-5-5-5-5-- 
D|-3-3-3-3-3-3-3-3-3-3-- 
A|---------------------- 
E|---------------------- 
 
Heaven's dead when you get sad 
I see your wishes fly 
Out of time 
For the best time you've had 
 
Verso: 
 
e|------------------------------------------------ 
B|------------------------------------------------ 
G|------------------------------------------------ 
D|-4----4---4--4h5---5---5\2-2----2---2--2h4----4- 
A|----0---0--------0---0--------0---0---------0--- 
E|------------------------------------------------ 
 
e|---------------------------------------- 
B|---------------------------------------- 
G|---------------------------------4-6--2- 
D|---4\--0----0---0--0h1----1---1\------0- 
A|-0--------0---0---------0---0----2-4---- 
E|---------------------------------------- 
 
I'll take it all, arrows or guns 
Hundreds or more to save you from one 
 
Finalização: 
 
(A última vez não têm ponte) 
 
e|---------------------------------------- 
B|---------------------------------------- 
G|-11\--9\--7-6-4-9--11-7---------------3- 
D|----------------------------------3-5---  x4 
A|-9\---7\--5-4-2-7--9--5-------3-5------- 
E|---------------------------------------- 
 
To save you from one  
To save you from one 
Heaven's dead when you get sad 
 
 

Compartilhe esta música: novo

QR Code
Copiar