Golden Visions

Audioslave

Intro (whammy pedal/bar, play with a Jimi Hendrix type sound) 
 
e|-------------------------------------------------------------------------| 
B|-------------------------------------------------------------------------| 
G|-------------------------------------------------------------------------| 
D|---------------------------------------------------------------------xxxx| 
A|-3h5--3--0-------------------3h5--3--0--3h5--3--0--------------------xxxx| 
D|------------3-h5------5--3------------------------3-h5------5--3-----xxxx| 


 
e|-------------------------------------------------------------------------| 
B|-------------------------------------------------------------------------| 
G|-------------------------------------------------------------------------| 
D|------------------------------------------------------------------------0|   
A|-3h5--3--0-------------------3h5--3--0--3h5--3--0-----------------------0|   
D|------------3-h5------5--3------------------------3-h5-----5--3--3--0---0|  


first rhythm chorus (distortion, no whammy) 
 
e|-------------------------------------------------------------------------| 
B|-------------------------------------------------------------------------| 
G|-5--7--5--2---------------------5--7--5--2-------------------------------| 
D|-5--7--5--2--3---5-----3--5--3--5--7--5--2-------------------------------| 
A|-3--5--3--0--3---5-----3--5--3--3--5--3--0-------------------------------| 
D|-------------3---5-----3--5--3-------------------------------------------| 


 
e|-------------------------------------------------------------------------| 
B|-------------------------------------------------------------------------| 
G|-5--7--5--2------------------------7-------------------------------------| 
D|-5--7--5--2--3---5-----3--5--3--x--7-------------------------------------| 
A|-3--5--3--0--3---5-----3--5--3--x--5-------------------------------------| 
D|-------------3---5-----3--5--3--x----------------------------------------| 
  4x 



singing bit 1 (little distortion, lightly struck) 
 
e|-------------------------------------------------------------------------| 
B|-------------------------------------------------------------------------| 
G|-------------------------------------------------------------------------| 
D|-7-----8-----7-----6-----------------------------------------------------| 
A|-5-----6-----5-----4-----------------------------------------------------| 
D|-0-----0-----0-----0-----------------------------------------------------| 
  4x 



chorus, slightly different (distortion, no whammy) 
 
e|-------------------------------------------------------------------------| 
B|-------------------------------------------------------------------------| 
G|-5--7--5--2--------------------------------------------------------------| 
D|-5--7--5--2--3---5-----3--5--3--6--5--3--5--3--0----3--5----3--5--3--x--0| 
A|-3--5--3--0--3---5-----3--5--3--6--5--3--5--3--0----3--5----3--5--3--x--0| 
D|-------------3---5-----3--5--3--6--5--3--5--3--0----3--5----3--5--3--x--0| 
  4x	 


singing bit 2 (little distortion, lightly struck) 
 
e|-------------------------------------------------------------------------| 
B|-------------------------------------------------------------------------| 
G|-------------------------------------------------------------------------| 
D|-7-----8-----7-----6-----------------------------------------------------| 
A|-5-----6-----5-----4-----------------------------------------------------| 
D|-0-----0-----0-----0-----------------------------------------------------| 
  4x 


chorus again (distortion, no whammy) 
 
e|-------------------------------------------------------------------------| 
B|-------------------------------------------------------------------------| 
G|-5--7--5--2--------------------------------------------------------------| 
D|-5--7--5--2--3---5-----3--5--3--6--5--3--5--3--0----3--5----3--5--3--x--0| 
A|-3--5--3--0--3---5-----3--5--3--6--5--3--5--3--0----3--5----3--5--3--x--0| 
D|-------------3---5-----3--5--3--6--5--3--5--3--0----3--5----3--5--3--x--0| 
  4x 


next part w/solo 
 
e|-------------------------------------------------------------------------| 
B|-------------------------------------------------------------------------| 
G|-5--7--5--2--------------------5--7--5--2--------------------------------| 
D|-3--5--3--0--5--7-----5--7--5--3--5--3--0--------------------------------| 
A|-------------3--5-----3--5--3--------------------------------------------| 
D|-------------------------------------------------------------------------| 


 
e|-------------------------------------------------------------------------| 
B|-------------------------------------------------------------------------| 
G|-5--7--5--2--------------------------------------------------------------| 
D|-3--5--3--0--5--7-----5--7--5--x--5--------------------------------------| 
A|-------------3--5-----3--5--3--x--3--------------------------------------| 
D|-------------------------------------------------------------------------| 
  2x 



back to normal rhythm chorus, background for solo (distortion, no whammy) 
 
e|-------------------------------------------------------------------------| 
B|-------------------------------------------------------------------------| 
G|-5--7--5--2---------------------5--7--5--2-------------------------------| 
D|-5--7--5--2--3---5-----3--5--3--5--7--5--2-------------------------------| 
A|-3--5--3--0--3---5-----3--5--3--3--5--3--0-------------------------------| 
D|-------------3---5-----3--5--3-------------------------------------------| 


 
e|-------------------------------------------------------------------------| 
B|-------------------------------------------------------------------------| 
G|-5--7--5--2------------------------7-------------------------------------| 
D|-5--7--5--2--3---5-----3--5--3--x--7-------------------------------------| 
A|-3--5--3--0--3---5-----3--5--3--x--5-------------------------------------| 
D|-------------3---5-----3--5--3--x----------------------------------------| 
  2x 


then, singing part 
 
e|-------------------------------------------------------------------------| 
B|-------------------------------------------------------------------------| 
G|-------------------------------------------------------------------------| 
D|-------------------------------------------------------------------------| 
A|-3h5--3--0--------------------3h5--3--0----------------------------------| 
D|------------3-h5-----3--5--3---------------------------------------------| 
  about 12x 


last chorus (distortion, no whammy) 
 
e|-------------------------------------------------------------------------| 
B|-------------------------------------------------------------------------| 
G|-5--7--5--2--------------------------------------------------------------| 
D|-5--7--5--2--3---5-----3--5--3--6--5--3--5--3--0----3--5----3--5--3--x--0| 
A|-3--5--3--0--3---5-----3--5--3--6--5--3--5--3--0----3--5----3--5--3--x--0| 
D|-------------3---5-----3--5--3--6--5--3--5--3--0----3--5----3--5--3--x--0| 
  4x	 


last chord 
 
e|-------------------------------------------------------------------------| 
B|-------------------------------------------------------------------------| 
G|-------------------------------------------------------------------------| 
D|--7\---------------------------------------------------------------------| 
A|--5\---------------------------------------------------------------------| 
D|--0\---------------------------------------------------------------------| 

 

Compartilhe esta música: novo

QR Code
Copiar