Exploder

Audioslave

Standard Tuning (EADGBE)
 

Intro:
E|-----------------------------------------------------------------
B|-7-7-7-7-7-7-7-7-7-7-7-7-7-7-7-7-7-7-7-7-7-7-7-7-7-7-7-7-7-7-7-7-
G|-----------------------------------------------------------------
D|-----------------------------------------------------------------
A|-----------------------------------------------------------------
E|-----------------------------------------------------------------
 

Verse:
E|-----------------------------------------------------------------
B|-7-7-7-7-7-7-7-7-7-7-7-7-7-7-7-7-7-7-7-7-7-7-7-7-7-7-7-7-7-7-7-7-
G|-----------------------------------------------------------------
D|-----------------------------------------------------------------
A|-----------------------------------------------------------------
E|-----------------------------------------------------------------
  'Met a man, locked away.....'
 
E|-----------------------------------------------------------------
B|-5-5-5-5-5-5-5-5-5-5-5-5-5-5-5-5-5-5-5-5-5-5-5-5-5-5-5-5-5-5-5-5-
G|-----------------------------------------------------------------
D|-----------------------------------------------------------------
A|-----------------------------------------------------------------
E|-----------------------------------------------------------------
  'Innocence, on a ball and chain....'
 

Chorus:
E|-----------------------------------------------------------------
B|-----------------------------------------------------------------
G|-----------------------------------------------------------------
D|--4----------4----------------4----------4-----------------------
A|--------4----------4----------------4----------4-----------------
E|----2-0-2-0----2-0-2-0----------2-0-2-0----2-0-2-0-2b3b2---------
                 'If you're free you'll never see the walls....'
 

Outro:
E|-----------------------------------------------------------------
B|-----------------------------------------------------------------
G|-----------------------------------------------------------------
D|--4b5--4b5--4b5--4b5--4b5--4b5b4---------------------------------
A|-----------------------------------------------------------------
E|--2b3--2b3--2b3--2b3--2b3--2b3b2---------------------------------
 

Estrutura:
 
Intro  x2
Verso  x2
Refrão x4
Verso  x3
Refrão x4
Solo
Verso  x2
Refrão x4


...DHM8...

Compartilhe esta música: novo

QR Code
Copiar