The Family

Attack! Attack!

Intro 1 

Guitar 1 
A-----------------------------------------------------------------| 
E-----------------------------------------------------------------| 
C-----------------------------------------------------------------| 
G-7~~~~--------7~~~~------7~~~~----------4~~~~------4~~~~---------| 
D-----------------------------------------------------------------| 
G-------7b~~r-------7b~~r-------7-6-7-6-4------7-6-4------0-0-0-0-| 
Pm                                                        . . . . 

                                                                   

Guitar 1 
A-----------------------------------------------------------------| 
E-----------------------------------------------------------------| 
C-----------------------------------------------------------------| 
G-7~~~~--------7~~~~------7~~~~----------4~~~~--------------------| 
D-----------------------------------------------------------------| 
G-------7b~~r-------7b~~r-------7-6-7-6-4------7-6-0-0-0-0--0-0-0-| 
Pm                                                 . . . .  . . . 

                                                                   

Guitar 1 & 2 
A-----------------------------------------------------------------| 
E-----------------------------------------------------------------| 
C-----------------------------------------------------------------| 
G-7~~~~--------7~~~~------7~~~~----------4~~~~------4~~~~---------| 
D-----------------------------------------------------------------| 
G-------7b~~r-------7b~~r-------7-6-7-6-4------7-6-4------0-0-0-0-| 
Pm                                                        . . . . 

                                                                   

Guitar 1 & 2 
A-----------------------------------------------------------------| 
E-----------------------------------------------------------------| 
C-----------------------------------------------------------------| 
G-7~~~~--------7~~~~------7~~~~----------4~~~~--------------------| 
D-----------------------------------------------------------------| 
G-------7b~~r-------7b~~r-------7-6-7-6-4------7-6-0-0-0-0--0-0-0-| 
Pm                                                 . . . .  . . . 

                                                                   

Guitar 1 & 2 
A-----------------------------------------------------------------| 
E-----------------------------------------------------------------| 
C-----------------------------------------------------------------| 
G-7~~~~--------7~~~~------7~~~~----------4~~~~------4~~~~---------| 
D-----------------------------------------------------------------| 
G-------7b~~r-------7b~~r-------7-6-7-6-4------7-6-4------0-0-0-0-| 
Pm                                                        . . . . 

                                                                   

Guitar 1 
A-----------------------------------------------------------------| 
E-----------------------------------------------------------------| 
C-----------------------------------------------------------------| 
G-7~~~~--------7~~~~------7~~~~----------4~~~~--------------------| 
D-----------------------------------------------------------------| 
G-------7b~~r-------7b~~r-------7-6-7-6-4------7-6-0-0-0-0--0-0-0-| 
Pm                                                 . . . .  . . . 

Guitar 2 
A-----------------------------------------------------------------| 
E-----------------------------------------------------------------| 
C-----------------------------------------------------------------| 
G-7~~~~--------7~~~~------7~~~~----------4~~~~--------------------| 
D-----------------------------------------------------------------| 
G-------7b~~r-------7b~~r-------7-6-7-6-4------7-6----------------| 

                                                                   
                                                                   


Intro 2 

(x2) 

Guitar 1 & 2 
A-----------------------------------------------------------------| 
E-----------------------------------------------------------------| 
C-----------------------------------------------------------------| 
G-7~~~~-6~~~~-7~~~~~~-0~~-7~~-3~~-4~~~~-3~~~~-4~~~~~~-3~~-4~~-0~~-| 
D-7~~~~-6~~~~-7~~~~~~-0~~-7~~-3~~-4~~~~-3~~~~-4~~~~~~-3~~-4~~-0~~-| 
G-7~~~~-6~~~~-7~~~~~~-0~~-7~~-3~~-4~~~~-3~~~~-4~~~~~~-3~~-4~~-0~~-| 

                                                                   

Guitar 1 & 2 
A-----------------------------------------------------------------| 
E-----------------------------------------------------------------| 
C-----------------------------------------------------------------| 
G-7~~~~-6~~~~-7~~~~~~-0~~-7~~-3~~-4~~~~-3~~~~-4~~~-0-0-0-0--0-0-0-| 
D-7~~~~-6~~~~-7~~~~~~-0~~-7~~-3~~-4~~~~-3~~~~-4~~~-0-0-0-0--0-0-0-| 
G-7~~~~-6~~~~-7~~~~~~-0~~-7~~-3~~-4~~~~-3~~~~-4~~~-0-0-0-0--0-0-0-| 
Pm                                                 . . . .  . . . 

                                                                   
                                                                   


Break Off 1 

Guitar 1 
A-------------------------------| 
E-------------------------------| 
C-------------------------------| 
G-3-3-3-3--3-3-3----------------| 
D-3-3-3-3--3-3-3----------------| 
G-3-3-3-3--3-3-3----------------| 
Pm. . . .  . . . 

Guitar 2 
A-------------------------------| 
E-------------------------------| 
C-------------------------------| 
G----------------3-3-3-3--3-3-3-| 
D----------------3-3-3-3--3-3-3-| 
G----------------3-3-3-3--3-3-3-| 
Pm               . . . .  . . . 

                                                                   
                                                                   


Verse 1 

Guitar 1 & 2 
A-----------------------------------------------------------------| 
E-----------------------------------------------------------------| 
C-----------------------------------------------------------------| 
G-3-3-3-3---3-3-3-3-3-3---3-3-3-3---3-3---3---3---33333---33333---| 
D-3-3-3-3---3-3-3-3-3-3---3-3-3-3---3-3---3---3---33333---33333---| 
G-3-3-3-3---3-3-3-3-3-3---3-3-3-3---3-3---3---3---33333---33333---| 
Pm. . . .   . . . . . .   . . . .   . .   .   .   .....   ..... 

                                                                   

Guitar 1 & 2 
A-----------------------------------------------------------------| 
E-----------------------------------------------------------------| 
C-----------------------------------------------------------------| 
G-3-3-3-3---3-3-3-3-3-3---3-3-3-3---3-3---3---3---33333---33333---| 
D-3-3-3-3---3-3-3-3-3-3---3-3-3-3---3-3---3---3---33333---33333---| 
G-3-3-3-3---3-3-3-3-3-3---3-3-3-3---3-3---3---3---33333---33333---| 
Pm. . . .   . . . . . .   . . . .   . .   .   .   .....   ..... 

                                                                   

Guitar 1 & 2 
A-----------------------------------------------------------------| 
E-----------------------------------------------------------------| 
C-----------------------------------------------------------------| 
G-----------------------------------------------------------------| 
D-----------------------------------------------------------------| 
G-0-0-0-0~~-0-0-0-0-0-0~~-0-0-0-0~~-0-0~~-0~~-0~~-00000~~-00000~~-| 

                                                                   

Guitar 1 & 2 
A-----------------------------------------------------------------| 
E-----------------------------------------------------------------| 
C-----------------------------------------------------------------| 
G-----------------------------------------------------------------| 
D-----------------------------------------------------------------| 
G-0-0-0-0~~-0-0-0-0-0-0~~-0-0-0-0~~-0-0~~-0~~-0~~-00000~~-00000~~-| 

                                                                   
                                                                   


Pre Chorus 1 

Guitar 1 
A-----------------------------------------------------------------| 
E-----------------------------------------------------------------| 
C-7~~~~~~~~~~-6~~~~~~~~~~-----------------------------------------| 
G-7~~~~~~~~~~-6~~~~~~~~~~-3~~~~~~~~~~~~~~~~~~-3-3-3---3---3---3---| 
D-5~~~~~~~~~~-4~~~~~~~~~~-3~~~~~~~~~~~~~~~~~~-3-3-3---3---3---3---| 
G-------------------------3~~~~~~~~~~~~~~~~~~-3-3-3---3---3---3---| 
Pm                                            . . .   .   .   . 

Guitar 2 
A-----------------------------------------------------------------| 
E-----------------------------------------------------------------| 
C-7~~~~~~~~~~-6~~~~~~~~~~-----------------------------------------| 
G-7~~~~~~~~~~-6~~~~~~~~~~-3~~~~~~~~~~~~~~~~~~~~~~~~~~~~~~~~~~~~~~-| 
D-5~~~~~~~~~~-4~~~~~~~~~~-3~~~~~~~~~~~~~~~~~~~~~~~~~~~~~~~~~~~~~~-| 
G-------------------------3~~~~~~~~~~~~~~~~~~~~~~~~~~~~~~~~~~~~~~-| 

                                                                   

Guitar 1 & 2 
A-----------------------------------------------------------------| 
E-----------------------------------------------------------------| 
C-7~~~~~~~~~~-6~~~~~~~~~~-10~~~~~---------------------------------| 
G-7~~~~~~~~~~-6~~~~~~~~~~-10~~~~~-7~~~~~~-------------------------| 
D-5~~~~~~~~~~-4~~~~~~~~~~-8~~~~~~-7~~~~~~-------------------------| 
G---------------------------------7~~~~~~-------------------------| 

                                                                   
                                                                   


Chorus 

Guitar 1 & 2 
A-----------------------------------------------------------------| 
E-----------------------------------------------------------------| 
C-7---7---7---6---6---6-------------------------------------------| 
G-7---7---7---6---6---6---3---3---3---3---3---3---3---3---3---3---| 
D-5---5---5---4---4---4---3---3---3---3---3---3---3---3---3---3---| 
G-------------------------3---3---3---3---3---3---3---3---3---3---| 

                                                                   

Guitar 1 
A-----------------------------------------------------------------| 
E-----------------------------------------------------------------| 
C-7---7---7---6---6---6---10--10----------------------------------| 
G-7---7---7---6---6---6---10--10--7---7---7---7---7---7---7---x-x-| 
D-5---5---5---4---4---4---8---8---7---7---7---7---7---7---7---x-x-| 
G---------------------------------7---7---7---7---7---7---7---x-x-| 

                                                                   

Guitar 2 
A-----------------------------------------------------------------| 
E-----------------------------------------------------------------| 
C-7---7---7---6---6---6---10--10----------------------------------| 
G-7---7---7---6---6---6---10--10--7---7---7---7---7---7---7---7---| 
D-5---5---5---4---4---4---8---8---7---7---7---7---7---7---7---7---| 
G---------------------------------7---7---7---7---7---7---7---7---| 

                                                                   

Guitar 1 & 2 
A-----------------------------------------------------------------| 
E-----------------------------------------------------------------| 
C-7---7---7---6---6---6-------------------------------------------| 
G-7---7---7---6---6---6---3---3---3---3---3---3---3---3---3---3---| 
D-5---5---5---4---4---4---3---3---3---3---3---3---3---3---3---3---| 
G-------------------------3---3---3---3---3---3---3---3---3---3---| 

                                                                   

Guitar 1 
A-----------------------------------------------------------------| 
E-----------------------------------------------------------------| 
C-7---7---7---6---6---6---10--10----------------------------------| 
G-7---7---7---6---6---6---10--10--7---7---7---7---7---7---7---7---| 
D-5---5---5---4---4---4---8---8---7---7---7---7---7---7---7---7---| 
G---------------------------------7---7---7---7---7---7---7---7---| 

                                                                   

Guitar 2 
A-----------------------------------------------------------------| 
E-----------------------------------------------------------------| 
C-7---7---7---6---6---6---10--10----------------------------------| 
G-7---7---7---6---6---6---10--10--7---7---7---7---7---7--/12\~~~~-| 
D-5---5---5---4---4---4---8---8---7---7---7---7---7---7--/12\~~~~-| 
G---------------------------------7---7---7---7---7---7--/12\~~~~-| 

                                                                   
                                                                   


Bridge 

(x2) 

Guitar 1 & 2 
A-----------------------------------------------------------------| 
E-----------------------------------------------------------------| 
C-----------------------------------------------------------------| 
G-7~~~~-6~~~~-7~~~~~~-0~~-7~~-3~~-4~~~~-3~~~~-4~~~~~~-3~~-4~~-0~~-| 
D-7~~~~-6~~~~-7~~~~~~-0~~-7~~-3~~-4~~~~-3~~~~-4~~~~~~-3~~-4~~-0~~-| 
G-7~~~~-6~~~~-7~~~~~~-0~~-7~~-3~~-4~~~~-3~~~~-4~~~~~~-3~~-4~~-0~~-| 

                                                                   

Guitar 1 & 2 
A-----------------------------------------------------------------| 
E-----------------------------------------------------------------| 
C-----------------------------------------------------------------| 
G-7~~~~-6~~~~-7~~~~~~-0~~-7~~-3~~-4~~~~-3~~~~-4~~~-0-0-0-0--0-0-0-| 
D-7~~~~-6~~~~-7~~~~~~-0~~-7~~-3~~-4~~~~-3~~~~-4~~~-0-0-0-0--0-0-0-| 
G-7~~~~-6~~~~-7~~~~~~-0~~-7~~-3~~-4~~~~-3~~~~-4~~~-0-0-0-0--0-0-0-| 
Pm                                                 . . . .  . . . 

                                                                   
                                                                   


Verse 2 

Guitar 1 
A-----------------------------------------------------------------| 
E-----------------------------------------------------------------| 
C-----------------------------------------------------------------| 
G-3-3-3-3---3-3-3-3-3-3---3-3-3-3---3-3---3---3---33333---33333---| 
D-3-3-3-3---3-3-3-3-3-3---3-3-3-3---3-3---3---3---33333---33333---| 
G-3-3-3-3---3-3-3-3-3-3---3-3-3-3---3-3---3---3---33333---33333---| 
Pm. . . .   . . . . . .   . . . .   . .   .   .   .....   ..... 

                                                                   

Guitar 1 
A-----------------------------------------------------------------| 
E-----------------------------------------------------------------| 
C-----------------------------------------------------------------| 
G-3-3-3-3---3-3-3-3-3-3---3-3-3-3---3-3---3---3-------------------| 
D-3-3-3-3---3-3-3-3-3-3---3-3-3-3---3-3---3---3-------------------| 
G-3-3-3-3---3-3-3-3-3-3---3-3-3-3---3-3---3---3---00000-----------| 
Pm. . . .   . . . . . .   . . . .   . .   .   . 
Guitar 2 
A-----------------------------------------------------------------| 
E-----------------------------------------------------------------| 
C-----------------------------------------------------------------| 
G-----------------------------------------------------------------| 
D-----------------------------------------------------------------| 
G---------------------------------------------------------00000---| 

                                                                   

Guitar 1 & 2 
A-----------------------------------------------------------------| 
E-----------------------------------------------------------------| 
C-----------------------------------------------------------------| 
G-----------------------------------------------------------------| 
D-----------------------------------------------------------------| 
G-0-0-0-0~~-0-0-0-0-0-0~~-0-0-0-0~~-0-0~~-0~~-0~~-00000~~-00000~~-| 

                                                                   

Guitar 1 & 2 
A-----------------------------------------------------------------| 
E-----------------------------------------------------------------| 
C-----------------------------------------------------------------| 
G-----------------------------------------------------------------| 
D-----------------------------------------------------------------| 
G-0-0-0-0~~-0-0-0-0-0-0~~-0-0-0-0~~-0-0~~-0~~-0~~-00000~~-00000~~-| 

                                                                   
                                                                   


Pre Chorus 2 

Guitar 1 
A-----------------------------------------------------------------| 
E-----------------------------------------------------------------| 
C-7~~~~~~~~~~-6~~~~~~~~~~-----------------------------------------| 
G-7~~~~~~~~~~-6~~~~~~~~~~-3~~~~~~~~~~~~~~~~~~-3-3-3---3---3---3---| 
D-5~~~~~~~~~~-4~~~~~~~~~~-3~~~~~~~~~~~~~~~~~~-3-3-3---3---3---3---| 
G-------------------------3~~~~~~~~~~~~~~~~~~-3-3-3---3---3---3---| 
Pm                                            . . .   .   .   . 

Guitar 2 
A-----------------------------------------------------------------| 
E-----------------------------------------------------------------| 
C-7~~~~~~~~~~-6~~~~~~~~~~-----------------------------------------| 
G-7~~~~~~~~~~-6~~~~~~~~~~-3~~~~~~~~~~~~~~~~~~~~~~~~~~~~~~~~~~~~~~-| 
D-5~~~~~~~~~~-4~~~~~~~~~~-3~~~~~~~~~~~~~~~~~~~~~~~~~~~~~~~~~~~~~~-| 
G-------------------------3~~~~~~~~~~~~~~~~~~~~~~~~~~~~~~~~~~~~~~-| 

                                                                   

Guitar 1 & 2 
A-----------------------------------------------------------------| 
E-----------------------------------------------------------------| 
C-7~~~~~~~~~~-6~~~~~~~~~~-10~~~~~---------------------------------| 
G-7~~~~~~~~~~-6~~~~~~~~~~-10~~~~~-7~~~~~~~~~~~~~~~~~~~~~~~~~~~~~~-| 
D-5~~~~~~~~~~-4~~~~~~~~~~-8~~~~~~-7~~~~~~~~~~~~~~~~~~~~~~~~~~~~~~-| 
G---------------------------------7~~~~~~~~~~~~~~~~~~~~~~~~~~~~~~-| 

                                                                   

Guitar 1 
A-----------------------------------------------------------------| 
E-----------------------------------------------------------------| 
C-7~~~~~~~~~~-6~~~~~~~~~~-----------------------------------------| 
G-7~~~~~~~~~~-6~~~~~~~~~~-3~~~~~~~~~~~~~~~~~~-3-3-3---3---3---3---| 
D-5~~~~~~~~~~-4~~~~~~~~~~-3~~~~~~~~~~~~~~~~~~-3-3-3---3---3---3---| 
G-------------------------3~~~~~~~~~~~~~~~~~~-3-3-3---3---3---3---| 
Pm                                            . . .   .   .   . 

Guitar 2 
A-----------------------------------------------------------------| 
E-----------------------------------------------------------------| 
C-7~~~~~~~~~~-6~~~~~~~~~~-----------------------------------------| 
G-7~~~~~~~~~~-6~~~~~~~~~~-3~~~~~~~~~~~~~~~~~~~~~~~~~~~~~~~~~~~~~~-| 
D-5~~~~~~~~~~-4~~~~~~~~~~-3~~~~~~~~~~~~~~~~~~~~~~~~~~~~~~~~~~~~~~-| 
G-------------------------3~~~~~~~~~~~~~~~~~~~~~~~~~~~~~~~~~~~~~~-| 

                                                                   

Guitar 1 & 2 
A-----------------------------------------------------------------| 
E-----------------------------------------------------------------| 
C-7~~~~~~~~~~-6~~~~~~~~~~-10~~~~~---------------------------------| 
G-7~~~~~~~~~~-6~~~~~~~~~~-10~~~~~-7~~~~~~-------------------------| 
D-5~~~~~~~~~~-4~~~~~~~~~~-8~~~~~~-7~~~~~~-------------------------| 
G---------------------------------7~~~~~~-------------------------| 

                                                                   
                                                                   


Chorus 

Guitar 1 & 2 
A-----------------------------------------------------------------| 
E-----------------------------------------------------------------| 
C-7---7---7---6---6---6-------------------------------------------| 
G-7---7---7---6---6---6---3---3---3---3---3---3---3---3---3---3---| 
D-5---5---5---4---4---4---3---3---3---3---3---3---3---3---3---3---| 
G-------------------------3---3---3---3---3---3---3---3---3---3---| 

                                                                   

Guitar 1 
A-----------------------------------------------------------------| 
E-----------------------------------------------------------------| 
C-7---7---7---6---6---6---10--10----------------------------------| 
G-7---7---7---6---6---6---10--10--7---7---7---7---7---7---7---x-x-| 
D-5---5---5---4---4---4---8---8---7---7---7---7---7---7---7---x-x-| 
G---------------------------------7---7---7---7---7---7---7---x-x-| 

                                                                   

Guitar 2 
A-----------------------------------------------------------------| 
E-----------------------------------------------------------------| 
C-7---7---7---6---6---6---10--10----------------------------------| 
G-7---7---7---6---6---6---10--10--7---7---7---7---7---7---7---7---| 
D-5---5---5---4---4---4---8---8---7---7---7---7---7---7---7---7---| 
G---------------------------------7---7---7---7---7---7---7---7---| 

                                                                   

Guitar 1 & 2 
A-----------------------------------------------------------------| 
E-----------------------------------------------------------------| 
C-7---7---7---6---6---6-------------------------------------------| 
G-7---7---7---6---6---6---3---3---3---3---3---3---3---3---3---3---| 
D-5---5---5---4---4---4---3---3---3---3---3---3---3---3---3---3---| 
G-------------------------3---3---3---3---3---3---3---3---3---3---| 

                                                                   

Guitar 1 
A-----------------------------------------------------------------| 
E-----------------------------------------------------------------| 
C-7---7---7---6---6---6---10--10----------------------------------| 
G-7---7---7---6---6---6---10--10--7---7---7---7---7---7---7---7---| 
D-5---5---5---4---4---4---8---8---7---7---7---7---7---7---7---7---| 
G---------------------------------7---7---7---7---7---7---7---7---| 

                                                                   

Guitar 2 
A-----------------------------------------------------------------| 
E-----------------------------------------------------------------| 
C-7---7---7---6---6---6---10--10----------------------------------| 
G-7---7---7---6---6---6---10--10--7---7---7---7---7---7--/12\~~~~-| 
D-5---5---5---4---4---4---8---8---7---7---7---7---7---7--/12\~~~~-| 
G---------------------------------7---7---7---7---7---7--/12\~~~~-| 

                                                                   
                                                                   


Breakdown 1 

Guitar 1 
A-----------------------------------------------------------------| 
E-----------------------------------------------------------------| 
C-----------------------------------------------------------------| 
G-3-3---3---3-3---3---3---3---3---3-3---3---3-3---3---3---3---3---| 
D-3-3---3---3-3---3---3---3---3---3-3---3---3-3---3---3---3---3---| 
G-3-3---3---3-3---3---3---3---3---3-3---3---3-3---3---3---3---3---| 
Pm. .   .   .         .       .   . .   .   .         .       . 

                                                                   

Guitar 1 
A-----------------------------------------------------------------| 
E-----------------------------------------------------------------| 
C-----------------------------------------------------------------| 
G-3-3---3---3-3---3---3---3---3---4---------4---------7---10------| 
D-3-3---3---3-3---3---3---3---3-------------------------------0---| 
G-3-3---3---3-3---3---3---3---3-------4b~~r---9b~~r---------------| 
Pm. .   .   .         .       . 

                                                                   

Guitar 1 
A-----------------------------------------------------------------| 
E-----------------------------------------------------------------| 
C-----------------------------------------------------------------| 
G-3-3---3---3-3---3---3---3---3---3-3---3---3-3---3---3---3---3---| 
D-3-3---3---3-3---3---3---3---3---3-3---3---3-3---3---3---3---3---| 
G-3-3---3---3-3---3---3---3---3---3-3---3---3-3---3---3---3---3---| 
Pm. .   .   .         .       .   . .   .   .         .       . 

                                                                   

Guitar 1 
A-----------------------------------------------------------------| 
E-----------------------------------------------------------------| 
C-----------------------------------------------------------------| 
G-----------------------------------------------------------------| 
D-----------------------------------------------------------------| 
G-----------------------------------------------------------------| 

                                                                   
                                                                   


Breakdown 2 

(x2) 

Guitar 1 & 2 
A-----------------------------------------------------------------| 
E-----------------------------------------------------------------| 
C-----------------------------------------------------------------| 
G-3-3---3---3-3---3---3---3---3---3-3-3-3---3-3-3-3---3---3---3---| 
D-3-3---3---3-3---3---3---3---3---3-3-3-3---3-3-3-3---3---3---3---| 
G-3-3---3---3-3---3---3---3---3---3-3-3-3---3-3-3-3---3---3---3---| 
Pm. .   .   .         .       .   . . . .   . . .     .   .   . 

                                                                   

Guitar 1 & 2 
A-----------------------------------------------------------------| 
E-----------------------------------------------------------------| 
C-----------------------------------------------------------------| 
G---------------------------------4---------4-7-----4--/10--------| 
D-----------------------------------------------------------------| 
G-3-3---3---3---3-3-3---3---3---3-----4b~~r-----4-----------7b~~r-| 

                                                                   
                                                                   


Breakdown 3 

(x2) 

Guitar 1 & 2 
A-----------------------------------------------------------------| 
E-----------------------------------------------------------------| 
C-----------------------------------------------------------------| 
G-3-3---3---3-3---3---3---3---3-----------------------------------| 
D-3-3---3---3-3---3---3---3---3-----------------------------------| 
G-3-3---3---3-3---3---3---3---3-----------------------------------| 
Pm. .   .   .         .       . 

                                                                   

Guitar 1 & 2 
A-----------------------------------------------------------------| 
E-----------------------------------------------------------------| 
C-----------------------------------------------------------------| 
G-3-3-3-3---3-3-3-3---3---3---3-----------------------------------| 
D-3-3-3-3---3-3-3-3---3---3---3-----------------------------------| 
G-3-3-3-3---3-3-3-3---3---3---3-----------------------------------| 
pm. . . .   . . .     .   .   . 

                                                                   

Guitar 1 & 2 
A-----------------------------------------------------------------| 
E-----------------------------------------------------------------| 
C-----------------------------------------------------------------| 
G-3-3---3---3-3---3---3---3---3-----------------------------------| 
D-3-3---3---3-3---3---3---3---3-----------------------------------| 
G-3-3---3---3-3---3---3---3---3-----------------------------------| 
Pm. .   .   .         .       . 

                                                                   

Guitar 1 
A-----------------------------------------------------------------| 
E-----------------------------------------------------------------| 
C-----------------------------------------------------------------| 
G-3-3-3-3---3-3-3-3---3---3---3-----------------------------------| 
D-3-3-3-3---3-3-3-3---3---3---3-----------------------------------| 
G-3-3-3-3---3-3-3-3---3---3---3-------------------00000-----------| 
pm. . . .   . . .     .   .   . 

Guitar 2 
A-----------------------------------------------------------------| 
E-----------------------------------------------------------------| 
C-----------------------------------------------------------------| 
G-3-3-3-3---3-3-3-3---3---3---3-----------------------------------| 
D-3-3-3-3---3-3-3-3---3---3---3-----------------------------------| 
G-3-3-3-3---3-3-3-3---3---3---3---------------------------00000---| 
pm. . . .   . . .     .   .   . 

                                                                   
                                                                   


Outro 

Guitar 1 & 2 
A-----------------------------------------------------------------| 
E-----------------------------------------------------------------| 
C-----------------------------------------------------------------| 
G-7-7-7-7---7-7-7-7-7-7---7-7-7-7---7-7---7---7---77777---77777---| 
D-7-7-7-7---7-7-7-7-7-7---7-7-7-7---7-7---7---7---77777---77777---| 
G-7-7-7-7---7-7-7-7-7-7---7-7-7-7---7-7---7---7---77777---77777---| 
Pm. . . .   . . . . . .   . . . .   . .   .   .   .....   ..... 

                                                                   

Guitar 1 & 2 
A-------------------------------------------------------------------| 
E-------------------------------------------------------------------| 
C-------------------------------------------------------------------| 
G-7-7-7-7---7-7-7-7-7-7---7-7-7-7---7-7---7---7---------------------| 
D-7-7-7-7---7-7-7-7-7-7---7-7-7-7---7-7---7---7---------------------| 
G-7-7-7-7---7-7-7-7-7-7---7-7-7-7---7-7---7---7---00000~~-00000~~---| 
Pm. . . .   . . . . . .   . . . .   . .   .   . 

                                                                   

Guitar 1 & 2 
A-----------------------------------------------------------------| 
E-----------------------------------------------------------------| 
C-----------------------------------------------------------------| 
G-----------------------------------------------------------------| 
D-----------------------------------------------------------------| 
G-0-0-0-0~~-0-0-0-0-0-0~~-0-0-0-0~~-0-0~~-0~~-0~~-00000~~-00000~~-| 

                                                                   

Guitar 1 & 2 
A-----------------------------------------------------------------| 
E-----------------------------------------------------------------| 
C-----------------------------------------------------------------| 
G-----------------------------------------------------------------| 
D-----------------------------------------------------------------| 
G-0-0-0-0~~-0-0-0-0-0-0~~-0-0-0-0~~-0-0~~-0~~-0~~-00000~~-00000~~-|  

Compartilhe esta música: novo

QR Code
Copiar