Unreachable ( ver. 2 )

Ashlee Simpson

Tabbed by: ibanez_player44 
Tuning: Standard 
 
Intro 
e|-------------------------------------------------------------------------| 
B|-------------------------------------------------------------------------| 
G|-----10-9-----10-9-------------------------------------------------------| 
D|--9--10/9--5--10/9--X6---------------------------------------------------| 
A|--9--8--7--5--8--7-------------------------------------------------------| 
E|--7--------3-------------------------------------------------------------| 
 
Before Chorus 
e|-------------------------------------------------------------------------| 
B|-------------------------------------------------------------------------| 
G|-------------------------------------------------------------------------| 
D|--9-9-9-9--7-7-7-7--5-5-5-5--2-2-2-2-------------------------------------| 
A|--9-9-9-9--7-7-7-7--5-5-5-5--2-2-2-2--X2---------------------------------| 
E|--7-7-7-7--5-5-5-5--3-3-3-3--0-0-0-0-------------------------------------| 
 
Chorus 
e|-------------------------------------------------------------------------| 
B|-------------------------------------------------------------------------| 
G|--7-7-7-7---------------------------------------7------------------------| 
D|--7-7-7-7--5-5-5-5--X3--THEN--2-2-2-2--5-5-5-5--7------------------------| 
A|--5-5-5-5--5-5-5-5------------2-2-2-2--5-5-5-5--5------------------------| 
E|-----------3-3-3-3------------0-0-0-0--3-3-3-3---------------------------| 
 
Verse 
e|-------------------------------------------------------------------------| 
B|-------------------------------------------------------------------------| 
G|-----10-9-----10-9-------------------------------------------------------| 
D|--9--10/9--5--10/9--X4---------------------------------------------------| 
A|--9--8--7--5--8--7-------------------------------------------------------| 
E|--7--------3-------------------------------------------------------------| 
 
Before Chorus 
e|-------------------------------------------------------------------------| 
B|-------------------------------------------------------------------------| 
G|-------------------------------------------------------------------------| 
D|--9-9-9-9--7-7-7-7--5-5-5-5--2-2-2-2-------------------------------------| 
A|--9-9-9-9--7-7-7-7--5-5-5-5--2-2-2-2--X2---------------------------------| 
E|--7-7-7-7--5-5-5-5--3-3-3-3--0-0-0-0-------------------------------------| 
 
Chorus 
e|-------------------------------------------------------------------------| 
B|-------------------------------------------------------------------------| 
G|--7-7-7-7---------------------------------------7------------------------| 
D|--7-7-7-7--5-5-5-5--X3--THEN--2-2-2-2--5-5-5-5--7------------------------| 
A|--5-5-5-5--5-5-5-5------------2-2-2-2--5-5-5-5--5------------------------| 
E|-----------3-3-3-3------------0-0-0-0--3-3-3-3---------------------------| 
 
Bridge 
e|-------------------------------------------------------------------------| 
B|-------------------------------------------------------------------------| 
G|-----------9-9-9--11-9------------------------9-9-9-9-9-9-9-9------------| 
D|--9-9-9-9--9-9-9--11-9--X2--9-9-9-9--5-5-5-5--9-9-9-9-9-9-9-9------------| 
A|--9-9-9-9--7-7-7--9--7------9-9-9-9--5-5-5-5--7-7-7-7-7-7-7-7------------| 
E|--7-7-7-7-------------------7-7-7-7--3-3-3-3-----------------------------| 
 
Chorus 
e|-------------------------------------------------------------------------| 
B|-------------------------------------------------------------------------| 
G|--7-7-7-7---------------------------------------7------------------------| 
D|--7-7-7-7--5-5-5-5--X3--THEN--2-2-2-2--5-5-5-5--7---------X2-------------| 
A|--5-5-5-5--5-5-5-5------------2-2-2-2--5-5-5-5--5------------------------| 
E|-----------3-3-3-3------------0-0-0-0--3-3-3-3---------------------------| 

Compartilhe esta música: novo

QR Code
Copiar