Unreachable

Ashlee Simpson

Hey what's up? my name is monica i'm from monterrey mexico. i play guitar and piano. 
about two months ago i just started loving ashlee simpson and i love her music. so i 
thought i would tab one of my favorite songs :unreachable:! have fun!!! keep you 
updated with more Ash songs. LUV YOU ASHLEEEEEE!!! U ROCK! 
Intro: 
e-------------------| 
b-------------------| 
g-------9--7--9-----| 
d----9--9--7--9-----|   played 6x 
a----9--7--5--7-----| 
e----7--------------| 
 
Verse: 
e-------------------| 
b-------------------| 
g-------------------| 
d---9---------------|   played 8x 
a---9---------------| 
e---7---------------| 
 
e-------------------| 
b-------------------| 
g-------------------| 
d---7---------------|   played 8x 
a---7---------------| 
e---5---------------| 
 
e-------------------| 
b-------------------| 
g-------------------| 
d---5---------------|   played 16x 
a---5---------------| 
e---3---------------| 
 
e-------------------| 
b-------------------| 
g-------------------| 
d---9---------------|   played 8x 
a---9---------------| 
e---7---------------| 
 
e-------------------| 
b-------------------| 
g-------------------| 
d---7---------------|   played 8x 
a---7---------------| 
e---5---------------| 
 
e-------------------| 
b-------------------| 
g-------------------| 
d---5---------------|   played 9x 
a---5---------------| 
e---3---------------| 
 
Chorus: 
e-------------------| 
b-------------------| 
g-7-----------------| 
d-7-----------------|  played 8x 
a-5-----------------| 
e-------------------| 
 
e-------------------| 
b-------------------| 
g-------------------| 
d---5---------------|   played 8x 
a---5---------------| 
e---3---------------| 
 
e-------------------| 
b-------------------| 
g-7-----------------| 
d-7-----------------|  played 8x 
a-5-----------------| 
e-------------------| 
 
e-------------------| 
b-------------------| 
g-------------------| 
d---5---------------|   played 8x 
a---5---------------| 
e---3---------------| 
 
e-------------------| 
b-------------------| 
g-7-----------------| 
d-7-----------------|  played 8x 
a-5-----------------| 
e-------------------| 
 
e-------------------| 
b-------------------| 
g-------------------| 
d---5---------------|   played 8x 
a---5---------------| 
e---3---------------| 
 
e-------------------| 
b-------------------| 
g-------------------| 
d---2---------------|   played 8x 
a---2---------------| 
e---0---------------| 
 
e-------------------| 
b-------------------| 
g-------------------| 
d---5---------------|   played 8x 
a---5---------------| 
e---3---------------| 
 
-Intro- 4x 
-Verse- 2x 
-Chorus- 
 
Bridge: 
e-------------------| 
b-------------------| 
g-------------------| 
d-------9-----------|   played 4x 
a-------9-----------| 
e-------7-----------| 
 
e-------------------| 
b-------------------| 
g-------------------| 
d-------7-----------|   played 4x 
a-------7-----------| 
e-------5-----------| 
 
e-------------------| 
b-------------------| 
g-------------------| 
d-------9-----------|   played 4x 
a-------9-----------| 
e-------7-----------| 
 
e-------------------| 
b-------------------| 
g-------------------| 
d-------7-----------|   played 4x 
a-------7-----------| 
e-------5-----------| 
 
e-------------------| 
b-------------------| 
g-------------------| 
d-------9-----------|   played 4x 
a-------9-----------| 
e-------7-----------| 
 
e-------------------| 
b-------------------| 
g-------------------| 
d-------7-----------|   played 4x 
a-------7-----------| 
e-------5-----------| 
 
e-------------------| 
b-------------------| 
g-------------------| 
d-------2-----------|   played 4x 
a-------2-----------| 
e-------0-----------| 
 
e-------------------| 
b-------------------| 
g-------------------| 
d-------7-----------|   played 4x 
a-------7-----------| 
e-------5-----------| 
 
-Chorus- 2x 
 
End on: 
e-------------------| 
b-------------------| 
g-------7-----------| 
d-------7-----------| 
a-------5-----------| 
e-------------------| 
 
 

Compartilhe esta música: novo

QR Code
Copiar