My Glowing Morning Dreams

As Tall As Lions

Tom: Db
The dreamy keyboard in the beginning plays something like this... 

E|--0----0-----------------------0--0----------0--0----------| 
B|--1----1-------3-----3--------------1-------------1----3---| 
G|---------------4-----4--------------2-------------2--------| 
D|-----------------------------------------------------------| 
A|-----------------------------------------------------------| 
E|-----------------------------------------------------------| 
Implied Chords (relative to capo) 
     C                       Bmin                      Amin                 Amin 

The second time through (0:23), Guitar 2 layers on the slide guitar... 

E|-9------------s11------s13s11-s9--------------8s9-----------| 
B|------------------------------------------------------------| 
G|------------------------------------------------------------| 
D|------------------------------------------------------------| 
A|------------------------------------------------------------| 
E|------------------------------------------------------------| 
   C                         Bmin                     Amin                  Amin 

At (0:46) Guitar 1 enters with the ride cymbal... 

E|--------------------------| 
B|--------------------------| 
G|--------------------------|   (x4) 
D|----5--------2------------| 
A|-3--3-----3--3------------| 
E|--------------------------| 

Drums come in at (1:09) and play along with Guitar 2 two times through 
Meanwhile Guitar 2 is doing something along these lines 

E|-13s11s8s9-----| 
B|---------------| 
G|---------------| (for every chord change = total of 8 times) 
D|---------------| 
A|---------------| 
E|---------------| 

Then at (1:44) the song picks up 

Guitar 1 
Am                      F                         C                          C 

Guitar 2 
E|-13-------------11s9-8-6-4----13--14—16-13b14b13-------------| 
B|-------------------------------------------------------------| 
G|-------------------------------------------------------------| 
D|-------------------------------------------------------------| 
A|-------------------------------------------------------------| 
E|-------------------------------------------------------------| 

 

Compartilhe esta música: novo

QR Code
Copiar