Kickin Myself

As Tall As Lions

Intro x2 

e-|----------0--------------0-------0-------0----------0------| 
b-|-------0-----0---------0------0-------0----0------0---0----| 
G-|----------------0----------------------------0----------0--| 
D-|-----------------------------------------------------------| 
A-|---12--------------11------9--------7----------7-----------| 
E-|-----------------------------------------------------------| 

e-|--0--0---0--0----0-----0----0---0---0---0-----0--------0---| 
b-|--0--0---0--0--0---0---0----0---0---0---0---0---0----0---0-| 
G-|--0--0---0--0----------0----0---0---0---0----------0-------| 
D-|--0--0---0--0----------0----0---0---0---0------------------| 
A-|--9--7---5--7----------9----7---5---4---5------------------| 
D-|-----------------------------------------------------------| 

verse 1  x’s 3 
e-|----------0--------------0-------0-------0----------0------| 
b-|-------0-----0---------0------0-------0----0------0---0----| 
G-|----------------0----------------------------0----------0--| 
D-|-----------------------------------------------------------| 
A-|---12--------------11------9--------7----------7-----------| 
E-|-----------------------------------------------------------| 
“Heard your broken voice on a telephone…. 
Made my heavy heart sink like a stone…. 
And after all this time, I should’ve known…” 

e-|--0--0---0--0----0-----0----0---0---0---0-----0--------0---| 
b-|--0--0---0--0--0---0---0----0---0---0---0---0---0----0---0-| 
G-|--0--0---0--0----------0----0---0---0---0----------0-------| 
D-|--0--0---0--0----------0----0---0---0---0------------------| 
A-|--9--7---5--7----------9----7---5---4---5------------------| 
D-|-----------------------------------------------------------| 

“You’d let me down………….Right down to the bone…….” 

Repeat verse 1 tab: 
“You know you’re right, I’m incomplete…. 
And I could never write down what I mean… 
And if you told me that the world….” 

e-|--0--0---0--0----0-----0----0---0---0---0-----0--------0---| 
b-|--0--0---0--0--0---0---0----0---0---0---0---0---0----0---0-| 
G-|--0--0---0--0----------0----0---0---0---0----------0-------| 
D-|--0--0---0--0----------0----0---0---0---0------------------| 
A-|--9--7---5--7----------9----7---5---4---2------------------| 
D-|-----------------------------------------------------------| 
“Was ending tonight………….That’s al-right-with-me……” 
Chorus 

e-|-------0----------0-----------0-----0----0---0-----0-------| 
b-|-----0---0------0---0-------0-----0-----0---0-----0-0------| 
G-|-----------0----------0------------------------------0-----| 
D-|-----------------------------------------------------------| 
A-|--12---------12----------12-----11----9----7----9----------| 
E-|------------------------------------------------9----------| 
“Hey…………….babe…………..I feel as though………I’ve lost…….you….. 

e-|----0-----0-----0-------0-----0------0-----------------------| 
b-|---0-0---0-0---0-0-----0-0---0-0----0-0----------------------| 
G-|------0-----0-----0-------0-----0------0---------------------| 
D-|-------------------------------------------------------------| 
A-|-9------9-----9------5------5-----5--------------------------| 
E-|-9------9-----9------5------5-----5--------------------------| 
“I feel as though, you don’t     want me……….” 

e-|-----0------0----0--------0--------------------------------| 
b-|---0-----0-----0--0-----0---0------------------------------| 
G-|--------------------0---------0----------------------------| 
D-|-----------------------------------------------------------| 
A-|-9-----5-----7--------7------------------------------------| 
E-|-----------------------------------------------------------| 
“I keep kickin myself…..” 

That’s pretty much how the song goes. You’ll have to listen to it to understand the song  
Here’s the second verse and the last few seconds of the song. 

verse 2 
“They say that anything can be replaced…. 
Found another girl to pass the days….. 
And she is beautiful, she has your face… 
There is nothing….time will not erase….” 

Chorus x2 

“And hey babe, I feel as though, I’ve lost you. 
I feel as though, you don’t need me. 
And I keep kickin myself. 
And lately, when I sleep alone I feel that 
I oughta learn, you don’t want me…. 
Just stop kiddin myself…” 

End with 
e-|--0--0---0--0----0-----0----0---0-------------------------| 
b-|--0--0---0--0--0---0---0----0---0-------------------------| 
G-|--0--0---0--0----------0----0---0-------------------------| 
D-|--0--0---0--0----------0----0---0-------------------------| 
A-|--9--7---5--7----------9----7---5-------------------------| 
D-|----------------------------------------------------------| 

Compartilhe esta música: novo

QR Code
Copiar