Duermete

As Tall As Lions

Tom: G
d#|--3-2-----3-----0------3-2-----3----0---| 
a#|--3-3-----3-----2------3-3-----3----2---| 
f#|--0-2-----0-----2------0-2-----0----2---| 
c#|--0-0-----0-----0------0-0-----0----0---| 
g#|--2-------2-----0------2-------2----0---| 
d#|--3-------3-----2------3-------3----2---| 

then i think the rest of the song is played with a G chord and an e minor chord... 
thats how they play it live... 

if not add a b chord in there for the album version 

d#|-0-3-0-3-0-3---| 
a#|-3-3-0-3-3-3---| 
f#|-4-0-0-0-4-0---| 
c#|-4-0-2-0-4-0---| 
g#|-2-2-2-2-2-2---| 
d#|---3-0-3-0-3---| 

Compartilhe esta música: novo

QR Code
Copiar