Outra Noite Que Se Vai

Armandinho

(solo) 1ª parte 
E|---------------------------------------------------------------------------------------- 
B|---------------------------------------------------------------------14/13-------------- 
G|--8/13----12/13/12/10---------------------------13/12--10------------------13/-----13--- 
D|----------------------10--10/8-6/8-8/10-10---10-----------10/8-6----------------8/------ 
A|---------------------------------------------------------------------------------------- 
E|---------------------------------------------------------------------------------------- 

(1ºriff) 
E|------------- 
B|--14/13-13--- 
G|------------- 
D|------------- 
A|------------- 
E|------------- 

(2ºriff) 
E|------------- 
B|------------- 
G|--8/13------- 
D|------------- 
A|------------- 
E|------------- 

(3ºriff) 
E|-------------------- 
B|--14/13--------13--- 
G|-------13-/--8/13--- 
D|-------------------- 
A|-------------------- 
E|-------------------- 

(pré-solo) 
E|------------------------------------------------------------------------------------------------ 
B|--14/13-----------13---------------------------------------14/13------------------------------13 
G|-------13-/--8/13------8/13-13---13/12---12/13-10---10/9--------13--13/12---12/13-10---10/9---13 
D|------------------------------------------------------------------------------------------------ 
A|------------------------------------------------------------------------------------------------ 
E|------------------------------------------------------------------------------------------------ 

(2º pré-solo) 
E|------------------------------------------------------------------------------------------------ 
B|--14/13-----------13---------------------------------------------14/13-------------------------- 
G|-------13-/--8/13------8/13-13---13/12---12/13-10---10/9----9/13------12---12/13-10---10/9------ 
D|------------------------------------------------------------------------------------------------ 
A|------------------------------------------------------------------------------------------------ 
E|------------------------------------------------------------------------------------------------ 

(solo) 2ª parte / igual ao 1ºsolo, muda apenas a velocidade. 
E|---------------------------------------------------------------------------------------- 
B|---------------------------------------------------------------------14/13-------------- 
G|--8/13----12/13/12/10---------------------------13/12--10------------------13/-----13--- 
D|----------------------10--10/8-6/8-8/10-10---10-----------10/8--4/6------------8/------- 
A|---------------------------------------------------------------------------------------- 
E|---------------------------------------------------------------------------------------- 

Compartilhe esta música: novo

QR Code
Copiar