Heavy Attack

Anubys

Tuning: Standard (EADGBe) 

e|-----------------------------------------------------------------------------| 
B|-----------------------------------------------------------------------------| 
G|-----------------------------------------------------------------------------| 
D|------------------------------------------------------------------6h7-6------| 
A|------7h8-7------7h8-7--8h10-8-------7h8-7------7h8-7------------------------| 
E|-0-0---------0-0--------------------0-0----------0-0-------------------------| 
|   * *            * *                          * *             * * 
| 
e|-----------------------------------------------------------------------------| 
B|-----------------------------------------------------------------------------| 
G|-----------------------------------------------------------------------------| 
D|-2-2--------2-2---------------------2-2----------2-2-------------------------| 
A|-2-2--------2-2---------------------2-2----------2-2-------------------------| 
E|-0-0--------0-0---------------------0-0----------0-0-------------------------| 
    * *           * *                           * *             * * 
e|-----------------------------------------------------------------------------| 
B|-----------------------------------------------------------------------------| 
G|-----------------------------------------------------------------------------| 
D|-----------------------------------------------------------------6h7-<6>|----| 
A|------7h8-7------7h8-7--8h10-8-------7h8-7------7h8-7------------------------| 
E|-0-0---------0-0--------------------0-0----------0-0-------------------------| 
|   * *            * *                          * *             * * 
| 
e|-----------------------------------------------------------------------------| 
B|-----------------------------------------------------------------------------| 
G|-----------------------------------------------------------------------------| 
D|-2~~---------------------------------\\\\PICK\\\\----------------------------| 
A|-2~~----------------------------------\\\\SLIDE\\\\--------------------------| 
E|-0~~-------------------------------------------------------------------------| 

e|-----------------------------------------------------------------------------| 
B|-----------------------------------------------------------------------------| 
G|*---9/10-9------9/10-9-9/10-10----9/10-9-----9/10-9--10/12-12----------------| 
D|*---9/10-9------9/10-9-9/10-10----9/10-9-----9/10-9--10/12-12----------------| 
A|-----7/8--7------7/8--7--7/8--8------7/8--7------7/8--7--8/10--10------------| 
E|-0-0---------0-0-------------------0-0----------0-0--------------------------| 
     * *            * *                        * *             * * 

e|-----------------------------------------------------------------------------| 
B|-----------------------------------------------------------------------------| 
G|*----------------------------------------------------------------------------| 
D|*----------------------------------------------------------------------------| 
A|-------778877------7788777777881010------------------------------------------| 
E|-0000---------0000-----------------------------------------------------------| 
     ****            **** 
e|-----------------------------------------------------------------------------| 
B|-----------------------------------------------------------------------------| 
G|-----------------------------------------------------------------------------| 
D|---------------------------------------------66------------------------------| 
A|-------778877------77887777881010--------------------------------------------| 
E|-0000---------0000-----------------------------------------------------------| 
     ****            **** 
e|-----------------------------------------------------------------------------| 
B|------8-8---------------8-8------------8------------------8------------------| 
G|-9-9-----9-9-7-9-9-9----9-9-7-9-----9-7----7-9---9--9-7----------------------| 
D|--------------------------------------------------9--------------------------| 
A|-----------------------------------------------------------------------------| 
E|-----------------------------------------------------------------------------| 
| 
| 
e|-----------------------------------------------------------------------------| 
B|-----------------------------------------------------------------------------| 
G|------------------------------------5------------------7---------------------| 
D|-2----------2----2-----------2----5--------5--------7--------7---------------| 
A|-2----------2----2-----------2----3--------5--------5--------7---------------| 
E|-0---0-0-0-0-0-0---0-0-0-0-0------0-0-3---0-0-----0-0-5---0-0-0--------------| 
           * * *     *        * * *     *        * *        * *       * *        * * * 
e|-----------------------------------------------------------------------------| 
B|------8-8---------------8-8------------8------------------8------------------| 
G|-9-9-----9-9-7-9-9-9----9-9-7-9-----9-7----7-9---9--9-7----------------------| 
D|--------------------------------------------------9--------------------------| 
A|-----------------------------------------------------------------------------| 
E|-----------------------------------------------------------------------------| 
| 
| 
e|-----------------------------------------------------------------------------| 
B|-----------------------------------------------------------------------------| 
G|------------------------------------5------------------7---------------------| 
D|-2----------2----2-----------2----5--------5--------7--------7---------------| 
A|-2----------2----2-----------2----3--------5--------5--------7---------------| 
E|-0---0-0-0-0-0-0---0-0-0-0-0------0-0-3---0-0-----0-0-5---0-0-0--------------| 
           * * *     *        * * *     *        * *        * *       * *        * * * 
e|---------------------------------------------------------------------------| 
B|---------------------------------------------------------------------------| 
G|---------------------------------------------------------------------------| 
D|---------------------------------------------------------------------------| 
A|---------------------------------------------------------------------------| 
E|---------------------------------------------------------------------------| 
| 
| 
e|-----------------------------------------------------------------------------| 
B|------8-8---------------8-8------------8------------------8------------------| 
G|-9-9-----9-9-7-9-9-9----9-9-7-9-----9-7----7-9---9--9-7----------------------| 
D|--------------------------------------------------9--------------------------| 
A|-----------------------------------------------------------------------------| 
E|-----------------------------------------------------------------------------| 
| 
| 
e|-----------------------------------------------------------------------------| 
B|-----------------------------------------------------------------------------| 
G|------------------------------------5------------------7---------------------| 
D|-2----------2----2-----------2----5--------5--------7--------7---------------| 
A|-2----------2----2-----------2----3--------5--------5--------7---------------| 
E|-0---0-0-0-0-0-0---0-0-0-0-0------0-0-3---0-0-----0-0-5---0-0-0--------------| 
           * * *     *        * * *     *        * *        * *       * *        * * * 
e|-----------------------------------------------------------------------------| 
B|-----------------------------------------------------------------------------| 
G|-55555555-77777777-----------------------------------------------------------| 
D|-55555555-77777777-22222222-55555555-----------------------------------------| 
A|-33333333-55555555-22222222-55555555-----------------------------------------| 
E|-----------------------------00000000-33333333-------------------------------| 

e|-----------------------------------------------------------------------------| 
B|-----------------------------------------------------------------------------| 
G|-55555555-77777777-----------------------------------------------------------| 
D|-55555555-77777777------2----2--------2----2-2-----2-------------------------| 
A|-33333333-55555555------2----2--------2----2-2-----2-------------------------| 
E|-----------------------------0-0-0-0-0---0-0-0-0-0-0---0-0-------------------| 

e|-----------------------------------------------------------------------------| 
B|-----------------------------------------------------------------------------| 
G|-55555555-77777777-----------------------------------------------------------| 
D|-55555555-77777777-22222222-55555555-----------------------------------------| 
A|-33333333-55555555-22222222-55555555-----------------------------------------| 
E|-----------------------------00000000-33333333-------------------------------| 

e|-----------------------------------------------------------------------------| 
B|-----------------------------------------------------------------------------| 
G|-55555555-7------------------------------------------------------------------| 
D|-55555555-7------------------------------------------------------------------| 
A|-33333333-5------------------------------------------------------------------| 
E|-----------------------------------------------------------------------------| 

e|-----------------------------------------------------------------------------| 
B|------8-8---------------8-8------------8------------------8------------------| 
G|-9-9-----9-9-7-9-9-9----9-9-7-9-----9-7----7-9---9--9-7----------------------| 
D|--------------------------------------------------9--------------------------| 
A|-----------------------------------------------------------------------------| 
E|-----------------------------------------------------------------------------| 
| 
| 
e|-----------------------------------------------------------------------------| 
B|-----------------------------------------------------------------------------| 
G|------------------------------------5------------------7---------------------| 
D|-2----------2----2-----------2----5--------5--------7--------7---------------| 
A|-2----------2----2-----------2----3--------5--------5--------7---------------| 
E|-0---0-0-0-0-0-0---0-0-0-0-0------0-0-3---0-0-----0-0-5---0-0-0--------------| 
           * * *     *        * * *     *        * *        * *       * *        * * * 

e|-----------------------------------------------------------------------------| 
B|-----------------------------------------------------------------------------| 
G|*----------------------------------------------------------------------------| 
D|*----------------------------------------------------------------------------| 
A|-------778877------7788777777881010------------------------------------------| 
E|-0000---------0000-----------------------------------------------------------| 
     ****            **** 
e|-----------------------------------------------------------------------------| 
B|-----------------------------------------------------------------------------| 
G|-----------------------------------------------------------------------------| 
D|---------------------------------------------66------------------------------| 
A|-------778877------77887777881010--------------------------------------------| 
E|-0000---------0000-----------------------------------------------------------| 
     ****            **** 
e|-----------------------------------------------------------------------------| 
B|-----------------------------------------------------------------------------| 
G|*---9/10-9------9/10-9-9/10-10----9/10-9-----9/10-9--10/12-12----------------| 
D|*---9/10-9------9/10-9-9/10-10----9/10-9-----9/10-9--10/12-12----------------| 
A|-----7/8--7------7/8--7--7/8--8------7/8--7------7/8--7--8/10--10------------| 
E|-0-0---------0-0-------------------0-0----------0-0--------------------------| 
     * *            * *                        * *             * * 

e|-----------------------------------------------------------------------------| 
B|-----------------------------------------------------------------------------| 
G|-55555555-77777777-----------------------------------------------------------| 
D|-55555555-77777777-22222222-55555555-----------------------------------------| 
A|-33333333-55555555-22222222-55555555-----------------------------------------| 
E|-----------------------------00000000-33333333-------------------------------| 

e|-----------------------------------------------------------------------------| 
B|-----------------------------------------------------------------------------| 
G|-55555555-77777777-----------------------------------------------------------| 
D|-55555555-77777777------2----2--------2----2-2-----2-------------------------| 
A|-33333333-55555555------2----2--------2----2-2-----2-------------------------| 
E|-----------------------------0-0-0-0-0---0-0-0-0-0-0---0-0-------------------| 

e|-----------------------------------------------------------------------------| 
B|-----------------------------------------------------------------------------| 
G|-55555555-77777777-----------------------------------------------------------| 
D|-55555555-77777777-22222222-55555555-----------------------------------------| 
A|-33333333-55555555-22222222-55555555-----------------------------------------| 
E|-----------------------------00000000-33333333-------------------------------| 

e|-----------------------------------------------------------------------------| 
B|-----------------------------------------------------------------------------| 
G|-55555555-7------------------------------------------------------------------| 
D|-55555555-7------------------------------------------------------------------| 
A|-33333333-5------------------------------------------------------------------| 
E|-----------------------------------------------------------------------------| 

Compartilhe esta música: novo

QR Code
Copiar