Home Theme

Antonio Pinto

Guitar 1 (Arpeggio picking) 

E|-------------------------|-------------------------|-------------------------|-------------------------| 
B|-----0---0-------0---0---|-----0---0-------0---0---|-----0---0-------0---0---|-----0---0-------0---0---| 
G|---2-------2---2-------2-|---2-------2---2-------2-|---2-------2---2-------2-|---1-------1---1-------1-| 
D|-4-----4-----4-----4-----|-2-----2-----2-----2-----|-0-----0-----0-----0-----|-3-----3-----3-----3-----| 
A|-------------------------|-------------------------|-------------------------|-------------------------| 
D|-------------------------|-------------------------|-------------------------|-------------------------| 

Guitar 2 (Chords) 

E|-------------------------|-------------------------|-------------------------|-------------------------| 
B|-------------------------|-------------------------|-------------------------|-------------------------| 
G|-------------------------|-2-----2-----2-----2-----|-------------------------|-------------------------| 
D|-4-----4-----4-----4-----|-2-----2-----2-----2-----|-0-----0-----0-----0-----|-3-----3-----3-----3-----| 
A|-4-----4-----4-----4-----|-0-----0-----0-----0-----|-0-----0-----0-----0-----|-4-----4-----4-----4-----| 
D|-4-----4-----4-----4-----|-------------------------|-0-----0-----0-----0-----|-3-----3-----3-----3-----| 

Guitar 1  

E|-------------------------|-------------------------|-------------------------|-------------------------| 
B|-----0---0-------0---0---|-----0---0-------0---0---|-----0---0-------0---0---|-----0---0-------0-----0-| 
G|---2-------2---2-------2-|---2-------2---2-------2-|---2-------2---2-------2-|---1-------1---1---------| 
D|-4-----4-----4-----4-----|-2-----2-----2-----2-----|-0-----0-----0-----0-----|-3-----3-----3-----3-----| 
A|-------------------------|-------------------------|-------------------------|---------------------4---| 
D|-------------------------|-------------------------|-------------------------|-------------------------| 

Guitar 2  

E|-------------------------|-------------------------|-------------------------|-------------------------| 
B|-------------------------|-------------------------|-------------------------|-------------------------| 
G|-------------------------|-2-----2-----2-----2-----|-------------------------|-------------------------| 
D|-4-----4-----4-----4-----|-2-----2-----2-----2-----|-0-----0-----0-----0-----|-3-----3-----3-----3-----| 
A|-4-----4-----4-----4-----|-0-----0-----0-----0-----|-0-----0-----0-----0-----|-4-----4-----4-----4-----| 
D|-4-----4-----4-----4-----|-------------------------|-0-----0-----0-----0-----|-3-----3-----3-----3-----| 

Guitar 1  

E|-------------------------|-------------------------|-------------------------|-------------------------| 
B|-----0---0-------0---0---|-----0---0-------0---0---|-----0---0-------0---0---|-----0---0-------0---0---| 
G|---2-------2---2-------2-|---2-------2---2-------2-|---2-------2---2-------2-|---1-------1---1-------1-| 
D|-4-----4-----4-----4-----|-2-----2-----2-----2-----|-0-----0-----0-----0-----|-3-----3-----3-----3-----| 
A|-------------------------|-------------------------|-------------------------|-------------------------| 
D|-------------------------|-------------------------|-------------------------|-------------------------| 

Guitar 2  

E|-------------------------|-------------------------|-------------------------|-------------------------| 
B|-------------------------|-------------------------|-------------------------|-------------------------| 
G|-------------------------|-2-----2-----2-----2-----|-------------------------|-------------------------| 
D|-4-----4-----4-----4-----|-2-----2-----2-----2-----|-0-----0-----0-----0-----|-3-----3-----3-----3-----| 
A|-4-----4-----4-----4-----|-0-----0-----0-----0-----|-0-----0-----0-----0-----|-4-----4-----4-----4-----| 
D|-4-----4-----4-----4-----|-------------------------|-0-----0-----0-----0-----|-3-----3-----3-----3-----| 

Guitar 1  

E|-------------------------|-------------------------|-------------------------|-------------------------| 
B|-----0---0-------0---0---|-----0---0-------0---0---|-----0---0-------0---0---|-----0---0-------0---0---| 
G|---2-------2---2-------2-|---2-------2---2-------2-|---2-------2---2-------2-|---1-------1---1-------1-| 
D|-4-----4-----4-----4-----|-2-----2-----2-----2-----|-0-----0-----0-----0-----|-3-----3-----3-----3-----| 
A|-------------------------|-------------------------|-------------------------|-------------------------| 
D|-------------------------|-------------------------|-------------------------|-------------------------| 

Guitar 2  

E|-------------------------|-------------------------|-------------------------|-------------------------| 
B|-------------------------|-------------------------|-------------------------|-------------------------| 
G|-------------------------|-2-----2-----2-----2-----|-------------------------|-------------------------| 
D|-4-----4-----4-----4-----|-2-----2-----2-----2-----|-0-----0-----0-----0-----|-3-----3-----3-----3-----| 
A|-4-----4-----4-----4-----|-0-----0-----0-----0-----|-0-----0-----0-----0-----|-4-----4-----4-----4-----| 
D|-4-----4-----4-----4-----|-------------------------|-0-----0-----0-----0-----|-3-----3-----3-----3-----| 

Guitar 1  

E|-------------------------|-------------------------|-------------------------|-------------------------| 
B|-----0---0-------0---0---|-----0---0-------0---0---|-----0---0-------0---0---|-----0---0-------0-----0-| 
G|---2-------2---2-------2-|---2-------2---2-------2-|---2-------2---2-------2-|---1-------1---1---------| 
D|-4-----4-----4-----4-----|-2-----2-----2-----2-----|-0-----0-----0-----0-----|-3-----3-----3-----3-----| 
A|-------------------------|-------------------------|-------------------------|---------------------4---| 
D|-------------------------|-------------------------|-------------------------|-------------------------| 

Guitar 2  

E|-------------------------|-------------------------|-------------------------|-------------------------| 
B|-------------------------|-------------------------|-------------------------|-------------------------| 
G|-------------------------|-2-----2-----2-----2-----|-------------------------|-------------------------| 
D|-4-----4-----4-----4-----|-2-----2-----2-----2-----|-0-----0-----0-----0-----|-3-----3-----3-----3-----| 
A|-4-----4-----4-----4-----|-0-----0-----0-----0-----|-0-----0-----0-----0-----|-4-----4-----4-----4-----| 
D|-4-----4-----4-----4-----|-------------------------|-0-----0-----0-----0-----|-3-----3-----3-----3-----| 

Guitar 1  

E|-----------------0-------|-----------------0-------|-----------------0-------|-------------------------| 
B|-----0---0-----------0---|-----0---0-----------0---|-----0---0-----------0---|-----0---0-------0---0---| 
G|---2-------2---2-------2-|---2-------2---2-------2-|---2-------2---2-------2-|---1-------1---1-------1-| 
D|-4-----4-----4-----4-----|-2-----2-----2-----2-----|-0-----0-----0-----0-----|-3-----3-----3-----3-----| 
A|-------------------------|-------------------------|-------------------------|-------------------------| 
D|-------------------------|-------------------------|-------------------------|-------------------------| 

Guitar 2  

E|-------------------------|-------------------------|-------------------------|-------------------------| 
B|-------------------------|-------------------------|-------------------------|-------------------------| 
G|-------------------------|-2-----2-----2-----2-----|-------------------------|-------------------------| 
D|-4-----4-----4-----4-----|-2-----2-----2-----2-----|-0-----0-----0-----0-----|-3-----3-----3-----3-----| 
A|-4-----4-----4-----4-----|-0-----0-----0-----0-----|-0-----0-----0-----0-----|-4-----4-----4-----4-----| 
D|-4-----4-----4-----4-----|-------------------------|-0-----0-----0-----0-----|-3-----3-----3-----3-----| 

Guitar 1 

E|-------------------0-----|-------------------------|-------------------------|-------------------------| 
B|-----0---0-------0-----0-|-----0---0-------0-------|-----0---0-------0---0---|-----0---0-------0-----0-| 
G|---6-------6---6-----6---|---6-------6---6-----4---|---2-------2---2-------2-|---1-------1---1---------| 
D|-7-----7-----7-----------|-7-----7-----7-----7---4-|-0-----0-----0-----0-----|-3-----3-----3-----3-----| 
A|-------------------------|-------------------------|-------------------------|---------------------4---| 
D|-------------------------|-------------------------|-------------------------|-------------------------| 

Guitar 2  

E|-------------------------|-------------------------|-------------------------|-------------------------| 
B|-------------------------|-------------------------|-------------------------|-------------------------| 
G|-2-----2-----2-----2-----|-2-----2-----2-----2-----|-------------------------|-------------------------| 
D|-2-----2-----2-----2-----|-2-----2-----2-----2-----|-0-----0-----0-----0-----|-3-----3-----3-----3-----| 
A|-0-----0-----0-----0-----|-0-----0-----0-----0-----|-0-----0-----0-----0-----|-4-----4-----4-----4-----| 
D|-------------------------|-------------------------|-0-----0-----0-----0-----|-3-----3-----3-----3-----| 

Guitar 1  

E|-------------------------|-------------------------|-------------------------|-------------------------| 
B|-----0---0-------0---0---|-----0---0-------0---0---|-------------------------|-------------------------| 
G|---2-------2---2-------2-|---2-------2---2-------2-|-1-----------------------|-------------------------| 
D|-4-----4-----4-----4-----|-2-----2-----2-----2-----|-------------------------|-------------------------| 
A|-------------------------|-------------------------|-------------------------|-------------------------| 
D|-------------------------|-------------------------|-------------------------|-------------------------| 

Guitar 2 

E|-------------------------|-------------------------|-------------------------| 
B|-------------------------|-------------------------|-------------------------| 
G|-------------------------|-2-----2-----2-----2-----|-------------------------| 
D|-4-----4-----4-----4-----|-2-----2-----2-----2-----|-3-----------------------| 
A|-4-----4-----4-----4-----|-0-----0-----0-----0-----|-4-----------------------| 
D|-4-----4-----4-----4-----|-------------------------|-3-----------------------| 

 

Compartilhe esta música: novo

QR Code
Copiar