Fight 'em 'til You Can't

Anthrax

Eb |----------------|| 
Bb |----------------|| 
Gb |----------------|| 
Db |-5----5---------|| 
Ab |-3-4--3-4-------|| 
Eb |---2----2-------|| 

Repeats 3 more times 

Eb |--------------------------------------|| 
Bb |--------------------------------------|| 
Gb |--------------------------------------|| 
Db |--------------------------------------|| 
Ab |---3-3-3-3-3-3-3-3-3s4----------------|| 
Eb |-02-2-2-2-2-2-2-2-2-------------------|| 

Eb |----------------------------------------|| 
Bb |----------------------------------------|| 
Gb |----------------------------------------|| 
Db |----------------------------------------|| 
Ab |----------------------------------------|| 
Eb |-222222222222222222222222---|| 
        1     2     3     4     1     2 

 

Eb |-------------------|| 
Bb |-------------------|| 
Gb |-------------------|| 
Db |-------------------|| 
Ab |-34-----34---------|| 
Eb |-23-----23---------|| 

Eb |-------------------------------------------|| 
Bb |-------------------------------------------|| 
Gb |-------------------------------------------|| 
Db |-------------------------------------------|| 
Ab |---4-4--4-4-----454----55--5-5-----45------|| 
Eb |-0h2-2-02-2----02320-0h33-03-3---03---0h1--|| 

Guitar 1 

Eb |------------------------------------------|| 
Bb |------------------------------------------|| 
Gb |------------------------------------------|| 
Db |------------------------------------------|| 
Ab |---4-4--4-4---------5-5--5-5--------------|| 
Eb |-0h2-2-02-2-------0h3-3-03-3--------------|| 

Guitar 2 

Eb |------------------------------------------|| 
Bb |------------------------------------------|| 
Gb |------------------------------------------|| 
Db |------------------------------------------|| 
Ab |---4-4--4-4----454----5-5--5-5-----45-----|| 
Eb |-0h2-2-02-2---02320-0h3-3-03-3---03--0h1--|| 


Guitar 1 

Eb |--------------------------------------------|| 
Bb |--------------------------------------------|| 
Gb |------------------------------6-6-6---------|| 
Db |-------------------------------5-5----------|| 
Ab |---4-4--4-4-----------5-5--5-5--------------|| 
Eb |-0h2-2-02-2---------0h3-3-03-3--------------|| 

Guitar 2 

Eb |--------------------------------------------|| 
Bb |--------------------------------------------|| 
Gb |------------------------------5-5-5---------|| 
Db |-------------------------------4-4----------|| 
Ab |---4-4--4-4----454----5-5--5-5--------------|| 
Eb |-0h2-2-02-2---02320-0h3-3-03-3--------------|| 

 

Chorus 

Play each power cord 16 times (8 beats) 

Eb |---------3------|---------3-----------------|| 
Bb |---------3------|---------3-----------------|| 
Gb |---------0------|---------0-----------------|| 
Db |-4---2---0---2--|-4---6---0-----------------|| 
Ab |-2---0---x---0--|-2---4---x---2-------------|| 
Eb |---------3------|---------3---0-------------|| 

Play the last power cord ( Eb  power chord) 8 times only (4 beats) 

Eb |---------------|| 
Bb |---------------|| 
Gb |---------------|| 
Db |-5---5---------|| 
Ab |-3-4-3-4-------|| 
Eb |---2---2-------|| 


Eb |--------------|| 
Bb |--------------|| 
Gb |--------------|| 
Db |-5---5--------|| 
Ab |-3-4-3-4------|| 
Eb |---2---2------|| 

Repeat this riff three more times 

Eb |-----------------------|| 
Bb |-----------------------|| 
Gb |-----------------------|| 
Db |-----------------------|| 
Ab |-3-3-------------------|| 
Eb |--2-2-222222---------|| 
            1 beat 

Repeat that riff 2 more times 

Eb |--------------------------------------------|| 
Bb |--------------------------------------------|| 
Gb |--------------------------------------------|| 
Db |---------2h3p2p0----------------------------|| 
Ab |-----2455-------5542------------------------|| 
Eb |-2455---------------5542--------------------|| 

Do that whole part 1 more time than you have a choice, you can play an octave higher for  
the last 2 times or you can stick to the riff | showed you 

Octave Higher 

Eb |--------------------------------------------|| 
Bb |--------------------------------------------|| 
Gb |--------------------------------------------|| 
Db |--10--10------------------------------------|| 
Ab |----9---9-999999----------------------------|| 
Eb |--------------------------------------------|| 

Repeat 2 more times 

Eb |--------------------------------------------|| 
Bb |--------------------------------------------|| 
Gb |---------------9h10p9h10--------------------|| 
Db |--------9111212---------1212119-------------|| 
Ab |-9111212-----------------------1212119------|| 
Eb |--------------------------------------------|| 


Solo 

Eb |--------------------------------------------|| 
Bb |----------------------10--------------------|| 
Gb |-------7---------7-9-9--9--76---------------|| 
Db |-7h9-9--9-9---7h9-9-7-----------------------|| 
Ab |--------------------------------------------|| 
Eb |--------------------------------------------|| 

Eb |--------------------------------------------|| 
Bb |---15--14------15--14------15--14-----------|| 
Gb |-----------14----------14-------------------|| 
Db |-14--14--14--14--14--14--14--14-------------|| 
Ab |--------------------------------------------|| 
Eb |--------------------------------------------|| 


Eb |--------------------------------17-------------------------17----------|| 
Bb |-s12~-s14~-s15~-s17~--17b19-------17b19-17b19-17b19-15b17-----15b16----|| 
Gb |-----------------------------------------------------------------------|| 
Db |-----------------------------------------------------------------------|| 
Ab |-----------------------------------------------------------------------|| 
Eb |-----------------------------------------------------------------------|| 

Eb |--------------|--21h22p21h22p21h22p21-------|| Repeat that part 4 more 
Bb |-14-15p14p12--|----------------------22-----|| times 
Gb |--------------|-----------------------------|| 
Db |--------------|-----------------------------|| 
Ab |--------------|-----------------------------|| 
Eb |--------------|-----------------------------|| 

Eb |-21~-21-17-14-21-17-14-21-17-14-21-17-14-19b21----------24b26-------|| 
Bb |--------------------------------------------------------------------|| 
Gb |--------------------------------------------------------------------|| 
Db |--------------------------------------------------------------------|| 
Ab |--------------------------------------------------------------------|| 
Eb |--------------------------------------------------------------------|| 
 

Compartilhe esta música: novo

QR Code
Copiar