Breathing Lightning

Anthrax

Intro: 

Clean or Chorus effect guitar 
e|--0---------0--------0----0----------------------------------------------------| 
B|--0---------0--------0----0----------------------------------------------------| 
G|--13--------14-------9----11---------------------------------------------------| 
D|--x---------x--------x----x----------------------------------------------------| 
A|--11--------12-------7----9----------------------------------------------------| 
E|--0---------0--------0----0----------------------------------------------------| 

2nd guitar distortion 
e|---------------------------------------------------------------------------| 
B|---------------------------------------------------------------------------| 
G|-13---14---12----14---13---------------------------------------------------| 
D|---------------------------------------------------------------------------| 
A|-11---12---10----12---11---------------------------------------------------| 
E|---------------------------------------------------------------------------| 

guitar chords following drum 'riddim' (distortion) 
e|------------------------------------------------------------------------------| 
B|------------------------------------------------------------------------------| 
G|-9----------------------------------------------------------------------------| 
D|------------------------------------------------------------------------------| 
A|-7----------------------------------------------------------------------------| 
E|-0----------------------------------------------------------------------------| 

Main riff palm mute where neccessary yal! 
e|---------------------------------------------------------------------------| 
B|---------------------------------------------------------------------------| 
G|---------------------------------------------------------------------------| 
D|---------------------------------------------------------------------------| 
A|--2---2-----------1------0-------------1------0----------------------------| 
E|--0---0----3--5------3-------0--3---5------3----0--3-----------------------| 

Verse just a simplified version of above) 
e|---------------------------------------------------------------------------| 
B|---------------------------------------------------------------------------| 
G|---------------------------------------------------------------------------| 
D|---------------------------------------------------------------------------| 
A|--2--2---------1-----0-----------------------------------------------------| 
E|--0--0---3--5-----3-----0--0-0-0-0-0-0-0-----------------------------------| 

Pre Chorus 
e|---------------------------------------------------------------------------| 
B|---------------------------------------------------------------------------| 
G|-9------10---12----14-------------------------13/9-------------------------| 
D|-9------10---12----14------------------------------------------------------| 
A|-7------8----10----12---x-2-------------------11/7-------------------------| 
E|---------------------------------------------------------------------------| 

Chorus: 

guitar 1 
e|---------------------------------------------------------------------------| 
B|---------------------------------------------------------------------------| 
G|-13-------14-------9----11---13--------------------------------------------| 
D|---------------------------------------------------------------------------| 
A|-11-------12-------7----9----11--------------------------------------------| 
E|---------------------------------------------------------------------------| 

guitar 2 
e|---------------------------------------------------------------------------| 
B|---------------------------------------------------------------------------| 
G|-13-------14------12----14---13--------------------------------------------| 
D|---------------------------------------------------------------------------| 
A|-11-------12------10----12---11--------------------------------------------| 
E|---------------------------------------------------------------------------| 

e|---16-----17-----12-----14----16-----------------------------------------| 
B|---17-----17-----10-----15----17-----------------------------------------| 
G|-------------------------------------------------------------------------| 
D|-------------------------------------------------------------------------| 
A|-------------------------------------------------------------------------| 
E|-------------------------------------------------------------------------| 

e|-------------------------------------------------------------------------------| 
B|---------------------------------10b12r10b12---10p8-10p8-8p7-8p7---------------| 
G|--------------------7---9---9ph-----------------------------------9-9ph--------| 
D|--------------7--9-------------------------------------------------------------| 
A|-7~-----7--9-------------------------------------------------------------------| 
E|-------------------------------------------------------------------------------| 

e|--12--14--15---17--15--14---19--17--15---------------------------------------------------------------------| 
B|--12--12--12---12--12--12---------------19--17--15--------------15-17--15----------------------------15-17-| 
G|---------------------------------------------------17-16--14-16-----------17-16----------14-16-17--17------| 
D|--------------------------------------------------------------------------------14-16-17-------------------| 
A|-----------------------------------------------------------------------------------------------------------| 
E|-----------------------------------------------------------------------------------------------------------| 

e|---------16p12-----19p16----16-------------------------------------------------| 
B|-9h12p9-------12--------17------17---------------------------------------------| 
G|-------------------------------------------------------------------------------| 
D|-------------------------------------------------------------------------------| 
A|-------------------------------------------------------------------------------| 
E|-------------------------------------------------------------------------------| 

e|------------------------------------------------------------------------------------------------| 
B|-7b9r7------9b10r9b10r9-7-----------------------------------------------------------15b17~------| 
G|---------9-----------------9--------7--9-11-12-9---------11-12-14-11------------13~-------------| 
D|---------------------------------9---------------12---12-------------14--12----~----------------| 
A|------------------------------10----------------------------------------------------------------| 
E|------------------------------------------------------------------------------------------------| 

outro Chorus 

e|--19--16-----------19-16---------19-16---------------------------------------| 
B|----------19--17---------19--17--------19-17---------------------------------| 
G|-----------------------------------------------------------------------------| 
D|-----------------------------------------------------------------------------| 
A|-----------------------------------------------------------------------------| 
E|-----------------------------------------------------------------------------| 

e|---------------------------------------------------------------------------------------| 
B|----------12------------------14--------------0-----------0----------------12----------| 
G|-------13----13------------14----14---------0---0-------0---0-----------13----13-------| 
D|----14----------14------14----------14----2-------2---4-------4------14----------14----| 
A|---------------------12-----------------3-----------5----------------------------------| 
E|-12---------------------------------------------------------------12-------------------| 

************************************ 

| x   Dead note 
| h   Hammer-on 
| p   Pull-off 
| r   Release 
| b   Bend 
| /   Slide up 
| ~   Vibrato 

************************************ 

Compartilhe esta música: novo

QR Code
Copiar