Till I Met You

Angeline Quinto

Tom: E
 
 

Intro 

E|--3-----------3-----3--3--1--1--0-----| 
B|-----------1-----3-----1-----------3--| 
G|--------0--------------2--------------| 
D|-----2--------------------------------| 
A|--3-----------------------------------| 
E|-----------------------1-----------3--| 
    C                    F           G 

E|--3-----------3-----3--3--1--1--0--------------3--| 
B|-----------1-----3-----1-----------3--1--0--3-----| 
G|--------0--------------2--------------------------| 
D|-----2--------------------------------------------| 
A|--3-----------------------------------------------| 
E|-----------------------1-----------3--------------| 
    C                    F           G 

Verse 

E|-------------------------| 
B|----------------------0--| 
G|--------0--0h2--0--------| 
D|-----2-------------2-----| 
A|--3-------------3--------| 
E|-------------------------| 
  C          CM7 
   I never dream  

E|-------------------------------------------| 
B|-----------1--1--0--0h1--0-----0-----------| 
G|--0--0--2-------------------2-----0--------| 
D|----------------------------------------2--| 
A|-------------------------------------2-----| 
E|--------1-----------3-------------0--------| 
             F                  G                 Em   
   'Cause I always thought that dreamin’ was for kids 

E|--------------------------------3--------| 
B|-----------------1-----------------0-----| 
G|--2--0-----0--2-----2-----------------0--| 
D|--------3-----0--------------0-----------| 
A|--0-----------------------2--------------| 
E|-----------------------3-----------------| 
  Am               Dm7    G 
 Just a childish thing 

E|-------------------------| 
B|----------------------0--| 
G|--------0--0h2--0--------| 
D|-----2-------------2-----| 
A|--3-------------3--------| 
E|-------------------------| 
 C             CM7 
   And I could swear 

E|----------------------0--1--3--------| 
B|-----1--1--0--0h1--3-----------------| 
G|--2----------------------------------| 
D|----------------------------------2--| 
A|-------------------------------2-----| 
E|--1-----------3-------------0--------| 
    F               G                Em 
   Love is just a game that children play 

E|--0--3/5--3--0--3--1r0--------------------| 
B|------------------------1-----1-----------| 
G|---------------------------2--------------| 
D|-------------------0-------------------0--| 
A|-----0------------------------------2-----| 
E|---------------------------------3--------| 
       Am              Dm7  G 
   And no more than a game 

Chorus 

E|--0--1--3--3-----------------| 
B|--------1--1-----1--0--------| 
G|--------------0-----------0--| 
D|-----------------------2-----| 
A|--------3-----------3--------| 
E|-----------------------------| 
           C      CM7 
   Till I met you 

E|--3--3--1--1--0--0-----| 
B|-----2--------------3--| 
G|-----1-----------------| 
D|-----------------------| 
A|-----------------------| 
E|-----1-----------3-----| 
      F               G        
   I never knew what love was 

E|--0--1--3--3-----------------| 
B|--------0--0-----0--0--------| 
G|--------------0-----2-----2--| 
D|-----------------------2-----| 
A|--------------------0--------| 
E|--------0--------------------| 
          Em      Am 
   Till I met you 


E|--3--3--1--1--0--0-----| 
B|-----2--------------3--| 
G|-----1-----------------| 
D|-----------------------| 
A|-----------------------| 
E|-----1-----------3-----| 
         Dm7               G        
   This feelin' seems to grow more 

E|--0--1--0--------0-----0-----0----------------------3--| 
B|--------0-----------3-----3-----3p1--1--------1-----0--| 
G|-------------------------------------2-----2-----2--0--| 
D|--------------2----------------------2--0-----------0--| 
A|-----------2--------------------0----0--------------2--| 
E|--------0-----------0-------------------------------3--| 
         Em     E7                Am  Dm7  G 
   Everyday, I love you more each day 

Verse 

E|------------------------| 
B|--1---------------1--0--| 
G|-----2—2p0--0-----------| 
D|---------------2--------| 
A|--------3---------------| 
E|------------------------| 
        C           CM7 
   I believe in you 

E|------------------------------------------| 
B|-----------1--1--0—0h1--1--3--------------| 
G|--0--0--2---------------------2--0--------| 
D|---------------------------------------2--| 
A|------------------------------------2-----| 
E|--------1----------3-------------0--------| 
        F               G            Em 
   I believe in every word when you say 

E|-----------------------------------3--------| 
B|--------------------1-----------------0-----| 
G|--0--2--0-----0--2-----2-----------------0--| 
D|-----------3-----0--------------0-----------| 
A|-----0-----------------------2--------------| 
E|--------------------------3-----------------| 
       Am              Dm7 G 
   I love you all the way 

E|-------------------------| 
B|--------1-------------0--| 
G|-----------0h2--0--------| 
D|-----2-------------2-----| 
A|--3-------------3--------| 
E|-------------------------| 
 C              CM7 
   And I could swear 

E|----------------------------5--5/7--3--------| 
B|-----------1--1--0--0h1--3-------------------| 
G|--0--0--2------------------------------------| 
D|------------------------------------------2--| 
A|---------------------------------------2-----| 
E|--------1-----------3---------------0--------| 
    F               G                 Em 
   Love is just a game that children play 

E|--0--3/5--3--0--3--1r0--------------------| 
B|------------------------1-----1-----------| 
G|---------------------------2--------------| 
D|-------------------0-------------------0--| 
A|-----0------------------------------2-----| 
E|---------------------------------3--------| 
       Am                  Dm7  G 
   So tell me that you'll stay 

   Repeat Chorus 

Bridge 

E|-------0--------------0--3/5--0--3--------5--| 
B|--1h3-----1--------1----------------------5--| 
G|----------2-----2-------------------------5--| 
D|-------------2-------------------------5--7--| 
A|----------0-------------------------5-----7--| 
E|---------------------------------3--------5--| 
         Am          G   Am    
Oho – Oh Oh  ---  Ohhhh 

E|--5--2--0--------0--------| 
B|-----------1--3-----1-----| 
G|-----------------------2--| 
D|--------------------------| 
A|--------------------0-----| 
E|--------------------------| 
   Am                  
   You and I should be together 

E|--0-----------------0--1--3--3--5--5--| 
B|--------1-----------------3--3--5--5--| 
G|-----2--2--------1-----------4--6--6--| 
D|--------------2--------------5--7--7--| 
A|-----------2-----------------5--7--7--| 
E|--------0-----------------3--3--5--5--| 
              F            G    A 
   Can't you see, cant you see 

Chorus 

E|-----3--5--5--------5--| 
B|--7-----7--7--7-----7--| 
G|-----------------7--7--| 
D|--------0--------------| 
A|-----------------------| 
E|-----------------------| 
           D      DM7 
   Till I met you 

E|--5--5--3--3--2--2--0--| 
B|-----3-----------------| 
G|-----4-----------------| 
D|-----------------------| 
A|-----------------0-----| 
E|-----3-----------------| 
      G                A        
   I never knew what love was 

E|--2--3--5--5-----------------| 
B|--------2--2-----------------| 
G|--------------------------4--| 
D|-----------------4-----4-----| 
A|--------------4-----2--------| 
E|--------2--------------------| 
          F#m     Bm 
   Till I met you 
    
E|--5--5--3--3--2--2--0--| 
B|-----------------------| 
G|-----------------------| 
D|-----------------------| 
A|-----------------0-----| 
E|-----0-----------------| 
        Em7               A      
   This feelin' seems to grow more 

E|--2--3--2--------2--7--2-----2-----0--0--1--| 
B|--------------------------5-----5--0--2--3--| 
G|-----------------------------------0--2--3--| 
D|--------------4--------------------0--2--3--| 
A|-----------4--------------------2--2--0--1--| 
E|--------2-----------2--------------0--------| 
      F#m     F#7               Bm7  Em7  A  Bb 
 Everyday, I love you more each day 

Chorus 

E|--8--4--8-----------| 
B|-----------------8--| 
G|--------------8-----| 
D|-----------8--------| 
A|--------6-----------| 
E|--------------------| 
           Eb     EbM7 
   Till I met you 

E|--6--6--4--4--3--3--1--| 
B|-----4-----------------| 
G|-----5-----------------| 
D|-----------------------| 
A|-----------------1-----| 
E|-----4-----------------| 
     G#               Bb        
   I never knew what love was 

E|--3--4--6--6-----------------| 
B|--------3--3-----------------| 
G|--------------------------5--| 
D|-----------------5-----5-----| 
A|--------------5-----3--------| 
E|--------3--------------------| 
          Gm      Cm 
   Till I met you 

E|--6--6--4--4--3--1--| 
B|--------------------| 
G|--------------------| 
D|--------------------| 
A|-----------------1--| 
E|-----0--------------| 
        Fm7               Bb        
   This feelin' seems to grow more 

E|--3--4--3--------3--8--3-----3-----------1--6--| 
B|--------------------------6-----6--4--4--1--6--| 
G|--------------------------------------5--1--7--| 
D|--------------5-----------------------5--1--8--| 
A|-----------5--------------------3-----3--3--8--| 
E|--------3-----------3--------------------1--6--| 
         G      G7                Cm  Fm7  Bb 
   Everyday, I love you more each day 

E|--------------------------6--6--4--4--3--1-----------| 
B|--8-----6-----------8--6-----4--------------4--3--4--| 
G|-----8-----8-----8-----------5-----------------------| 
D|--------------8-----------------------------------1--| 
A|-----------6-----------------------------1-----------| 
E|-----------------------------4-----------------------| 
        Eb Ebm7 G# Bb Eb       
Till I met you. 



************************************ 

| h  Hammer-on 
| p  Pull-off 
| r  Release 
| /  Slide up 

************************************ 

Compartilhe esta música: novo

QR Code
Copiar