Tom: A
 
Intro 
          A       D      A                      A     D     E       A      
E|-------------------------------------------------------------------- 
B|-------------------------------------------------------------------- 
G|----------------------------------2-------------------------------- 
D|------------------------2-h-4------------------------------------- 
A|-------------------------------------------------------------------- 
E|-------------------------------------------------------------------- 
 
 
Riff before verse 
 
E|---5-h-7-p-5---------------------------------------------------- 
B|------------------7-p-5------------------------------------------ 
G|---------------------------6-s-4--2--4 p 2------2--2-h-4----- 
D|-----------------------------------------------4------------------ 
A|------------------------------------------------------------------- 
E|------------------------------------------------------------------- 
 
 
E|------------------------------------------------------------------- 
B|---2-h-3-p-2---------------------------------------------------- 
G|-----------------4-p-2------------------------------------------- 
D|--------------------------4--2-h-4-p-2------------------------- 
A|---------------------------------------------4--2---0------------ 
E|------------------------------------------------------------------- 
 
 
_______________________________________________________ 
Contribuição: Gustavo Henrique Gomes de Oliveira([email protected]) 

Compartilhe esta música: novo

QR Code
Copiar