Little Martha

Allman Brothers Band

Tom: E
 
INTRO: 
------ 
 
   (Freely) 
4|------------------+--------------+-----------------------+2+------------| 
-|-------0-------0--|----------4---|-------0---------------|-|------------| 
4|--0--1------------|--0--1----1---|--0--1--------0-1p0----|4|------------| 
 |--0---------2-----|--0--2----2---|--0---------2-------2--| |--0------0--| 
 |--0---------0--0--|--------------|--0------0-------------| |------------| 
 |--0------0--------+-------0------+--0--------------------+ +--0---0-----| 
     ^                          ^      ^ 
  (strum)                    (strum)  (strum) 
 
 
PART 1: 
------- 
    E 
4|--------------0----+-------------------+------------------+-----------------| 
-|--------0-----0----|----0--------------|--------0---------|-----------------| 
4|--0h1---0----------|----0-----1p0------|--0h1---0---------|----1-----0------| 
 |--0h2--------------|----------2p0------|--0h2---------2---|----2-----0------| 
 |-------------------|-------------------|--------------4---|-----------------| 
 |--0---0---0---0----+--0---0---0---0----+--0---0---0---0---+--0---0---0---0--| 
 
    1 . 2 . 3 . 4 .     1 . 2 . 3 . 4 .     1 . 2 . 3 . 4 .    1 . 2 . 3 . 4 . 
 
|--------------0----+-------------------+------------------+------------------| 
|--------0-----0----|----0--------------|--------0---------|------------------| 
|--0h1---0----------|----0-----1p0------|--0h1---0---------|----0-------------| 
|--0h2--------------|----------2p0------|--0h2---------2---|----------0-------| 
|-------------------|-------------------|--------------4---|----0-------------| 
|--0---0---0---0----+--0---0---0---0----+--0---0---0---0---+--0---0---0---0---| 
 
   1 . 2 . 3 . 4 .     1 . 2 . 3 . 4 .     1 . 2 . 3 . 4 .    1 . 2 . 3 . 4 . 
 
   A 
|--------------5----+-------------------+------------------+------------------| 
|--------5-----5----|----5--------------|--------5---------|----7-----5-------| 
|--5h6---5----------|----5-----6p5------|--5h6---5---------|----------5-------| 
|--5h7--------------|----------7p5------|--5h7---------7---|----7-----5-------| 
|-------------------|-------------------|--------------9---|------------------| 
|--5---5---5---5----+--5---5---5---5----+--5---5---5---5---+--5---5---5---0---| 
 
   1 . 2 . 3 . 4 .     1 . 2 . 3 . 4 .     1 . 2 . 3 . 4 .    1 . 2 . 3 . 4 . 
 
   E 
|--------------0----+-------------------+------------------+------------------| 
|--------0-----0----|----0--------------|--------0---------|------------------| 
|--0h1---0----------|----0-----1p0------|--0h1---0---------|----0-------------| 
|--0h2--------------|----------2p0------|--0h2---------2---|----------0-----0-| 
|-------------------|-------------------|--------------4---|----0-------------| 
|--0---0---0---0----+--0---0---0---0----+--0---0---0---0---+--0---0---0---0---| 
 
   1 . 2 . 3 . 4 .     1 . 2 . 3 . 4 .     1 . 2 . 3 . 4 .    1 . 2 . 3 . 4 . 
 
      {To Coda}    C#m/E  A/B      E                       C#m/E  A/B    B7 
2|--------------|4|--9-----5-------7--+------7-----7------+--9-----5-----2---| 
-|--------------|-|--9-----5-------7--|--------7-----7----|--9-----5-----0---| 
4|--------------|4|--8-----5-------7--|----7-----7--------|--8-----5-----1---| 
 |--0-----0-----| |--0----------------|-------------------|--0-----5---------| 
 |--------------| |------0-----0------|--0---0---0---0----|------0-----0-----| 
 |--0-----0-----| |-------------------+-------------------+------------------| 
 
    1  .  2  .      1 . 2 . 3 . 4 .     1 . 2 . 3 . 4 .    1 . 2 . 3 . 4 . 
 
                     C#m/E  A/B    E                          E/G#   F# 
|------2-----2------|--9-----5-----7----+------7-----7------+----0-----0------| 
|----0---0-0---0----|--9-----5-----7----|--------7-----7----|------------0----| 
|-------------------|--8-----5-----7----|----7-----7--------|--3---3-1-----0--| 
|-------------------|--0----------------|-------------------|-----------------| 
|--0---0---0---0----|------0-----0------|--0---0---0---0----|-----------------| 
|-------------------|-------------------+-------------------+--4-----2-----0--| 
 
   1 . 2 . 3 . 4 .     1 . 2 . 3 . 4 .     1 . 2 . 3 . 4 .    1 . 2 . 3 . 4 . 
 
 
{1.}                 {2.} 
                         
2|----------0------| 2|---14-11-12------| 
-|----------0------| -|------------12---| 
4|----------0------| 4|-----------------| 
 |-----------------|  |----------0------| 
 |-----------------|  |-------------0---| 
 |----4-p0-----0---|  |-------0---------| 
 
      1  .  2  .           1  .  2  .      
 
PART 2: 
------- 
   B  C#m/B  B         A/B                 G  C#m/B  B        A/B 
|--7-----9-9-7---7--+----5-----5--------+--7-----9-9-7---7--+----5-5----------| 
|--7-------9-7---7--|----5-------5------|--7-------9-7---7--|----5-5----------| 
|--7---8---9-7-7-7--|----5---5-----5----|--7---8---8-7-7-7--|----5-5----------| 
|-------------------|-------------------|-------------------|-----------------| 
|--0---0---0---0----|--0---0---0---0----|--0---0---0---0----|--0---0---0---0--| 
|-------------------+-------------------+-------------------+-----------------| 
 
   1 . 2 . 3 . 4 .     1 . 2 . 3 . 4 .     1 . 2 . 3 . 4 .     1 . 2 . 3 . 4 . 
 
   B  C#m/B  B          A/B                B7   A/B    B 
|--7-----9-9-7---7--+----5-----5--------+--2-----5-----7----+------7-----7----| 
|--7-------9-7---7--|----5-------5------|--0-----5-----7----|--------7-----7--| 
|--7---8---9-7-7-7--|----5---5-----5----|--1-----5-----7----|----7-----7------| 
|-------------------|-------------------|-------------------|-----------------| 
|--0---0---0---0----|--0---0---0---0----|--0---0---0---0----|--0---0---0---0--| 
|-------------------+-------------------+-------------------+-----------------| 
 
   1 . 2 . 3 . 4 .     1 . 2 . 3 . 4 .     1 . 2 . 3 . 4 .     1 . 2 . 3 . 4 . 
 
  C#m/B A/B    B7                          B  C#m/B  B         A/B 
|--9-----5-----2----+------2-----2------+--7-----9-9-7---7--+---5------5------| 
|--9-----5-----0----|----0---0-0---0----|--7-------9-7---7--|---5--------5----| 
|--8-----5-----1----|-------------------|--7---8---9-7-7-7--|---5----5-----5--| 
|-------------------|-------------------|-------------------|-----------------| 
|--0---0---0---0----|--0---0---0---0----|--0---0---0---0----|--0---0---0---0--| 
|-------------------+-------------------+-------------------+-----------------| 
 
   1 . 2 . 3 . 4 .     1 . 2 . 3 . 4 .     1 . 2 . 3 . 4 .     1 . 2 . 3 . 4 . 
 
   B  C#m/B  B          A/B                B  C#m/B  B          A/B 
|--7-----9-9-7---7--+----5-5------------+--7-----9-9-7---7--+----5-----5------| 
|--7-------9-7---7--|----5-5------------|--7-------9-7---7--|----5-------5----| 
|--7---8---9-7-7-7--|----5-5------------|--7---8---9-7-7-7--|----5---5-----5--| 
|-------------------|-------------------|-------------------|-----------------| 
|--0---0---0---0----|--0---0---0---0----|--0---0---0---0----|--0---0---0---0--| 
|-------------------+-------------------+-------------------+-----------------| 
 
   1 . 2 . 3 . 4 .     1 . 2 . 3 . 4 .     1 . 2 . 3 . 4 .     1 . 2 . 3 . 4 . 
 
  E/G#   F# 
|----0-----0--------+2+---------0---------|  (Repeat Part 1) 
|------------0------|-|---------0---------| 
|--3---3-1-----0----|4|---------0---------| 
|-------------------| |-------------------| 
|-------------------| |-------------------| 
|--4-----2-----0----+ +---4-p0------------| 
 
   1 . 2 . 3 . 4 .        1  .  2  . 
 
 
 
CODA:   
----- 
 
 ( <---------------  natural harmonics  -----------------> ) 
|-------------------+-------------------+--12--------------| 
|--------7----12----|----7--------------|--12--------------| 
|--5-----7----12----|----7--------------|--12--------------| 
|--5-----7----12----|----7--------------|--12--------------| 
|--5----------------|-------------------|---0--------------| 
|-------------------+-------------------+---0--------------| 
 
_______________________________________________________ 
Contribuição: Gustavo Henrique Gomes de Oliveira([email protected]) 

Compartilhe esta música: novo

QR Code
Copiar