It's All In Your Hands

Adam Gontier

Verse: 

E-----------------------------2------------------------------------| 
B-----2-----------------------3------------------------------------| 
G-----2----------1------------2------------1-----------------------| 
D-----2----------2-------------------------2-----------------------| 
A----------------2-------------------------2-----------------------| 
E------------------------------------------------------------------|(2x) 

Reach for my hand, as you fall in the dark. Imprinted on me, you have left your mark.  
I wanna keep you safe, and run to where you are. Lost out in the sea, I will be your arc.  


----------------------------2---------------------------------| 
----------------------------3---------------------------------| 
----------------------------2--------------1------------------| 
-------------------------------------------2------------------| 
-------------------------------------------2------------------| 
--------------------------------------------------------------| 
                          I will be your arc... 
Chorus: 

D-----2-----------------------4-------------2------------------------| 
A-----3-----------------------5-------------2------------------------| 
F-----2----------1------------6-------------2------------------------| 
C----------------2------------6-------------4------------------------| 
G----------------2------------4-------------4------------------------| 
C-----------------------------4-------------2------------------------| (3x) 

Take the sky and take the land, 
Take the moon and the stars,  
It's all in your hands. 
All of my soul  
It feels so empty   


E-----2------------------------------------------------------------| 
B-----3-----------------------2------------------------------------| 
G-----2----------1------------2------------------------------------| 
D----------------2------------2------------------------------------| 
A----------------2-------------------------------------------------| 
E------------------------------------------------------------------|  

Compartilhe esta música: novo

QR Code
Copiar