Don't Cry

Adam Again

Tom: Am
Intro:  
e|--0---0---0---0------0---0---0---0------------------ 
B|----3---3---3---3------3---3---3---3---------------- 
G|-------------------------------------------------- 
D|-------------------------------------------------- 
A|-------------------------------------------------- 
E|-------------------------------------------------- 


riff:   just listen to the cd and you\'ll get the strumming pattern 
e|--5--5--5--5--5--0---0---0---0---------------------- 
B|--3--3--3--3--3----3---3---3---3-------------------- 
G|--4--4--4--4--4------------------------------------ 
D|-------------------------------------------------- 
A|-------------------------------------------------- 
E|-------------------------------------------------- 


play the intro, then the riff 4 times 

Verse: 
riff 
riff 
riff  
riff 
riff 
riff 

riff 
riff  
riff 
riff 
riff  

Chorus: 
Am (I'm not sure about that chord) 
G    
A  
riff 
riff 


and then after that it just repeats the same kind of thing until the end of 
the song 

Compartilhe esta música: novo

QR Code
Copiar