Clube Dos Canalhas

Matanza

Tom: A
Intro 
E|----------------------------------------------------| 
B|----------------------------------------------------| 
G|----------------------------------------------------| 
D|----------------------4-----------------------------| 
A|-------------------7--------------------------------| 
E|-2--2--4--2--5--2-----------------------------------| (4x) (Palm Muted Abafado) 

E|----------------------------------------------------| 
B|----------------------------------------------------| 
G|----------------------------------------------------| 
D|----------------------4-----------------------------| 
A|-------------------7--------------------------------| 
E|-2--2--4--2--5--2-----------------------------------| (3x) 

E|----------------------------------------------------| 
B|----------------------------------------------------| 
G|----------------------------------------------------| 
D|----------------------------------------------------| 
A|----------------------------------------------------| 
E|-2--2--4--2--5--4--2--0-----------------------------| 

' Vai chegar de madrugada e ela vai querer saber...' 
E|----------------------------------------------------| 
B|----------------------------------------------------| 
G|---------------------4--4-----4--4------------------| 
D|--4--4-----4--4------4--4-----4--4------------------| 
A|--4--4-----4--4------2--2-----2--2------------------| 
E|--2--2-----2--2-------------------------------------| 

E|----------------------------------------------------| 
B|----------------------------------------------------| 
G|----------------------------------------------------| 
D|----------------------4-----------------------------| 
A|-------------------7--------------------------------| 
E|-2--2--4--2--5--2--------2--2--4--2--5--4--2--0-----| 

' Onde foi, aonde esteve, o que foi fazer... ' 
E|----------------------------------------------------| 
B|----------------------------------------------------| 
G|---------------------4--4-----4--4------------------| 
D|--4--4-----4--4------4--4-----4--4------------------| 
A|--4--4-----4--4------2--2-----2--2------------------| 
E|--2--2-----2--2-------------------------------------| 

E|----------------------------------------------------| 
B|----------------------------------------------------| 
G|----------------------------------------------------| 
D|----------------------4-----------------------------| 
A|-------------------7--------------------------------| 
E|-2--2--4--2--5--2--------2--2--4--2--5--4--2--0-----| 

' Mas à todas as perguntas sabe responder Tem um Plano A  e um Plano  B ' 
E|--------------------------------------|-------------| 
B|--------------------------------------|-------------| 
G|-----------------4--4-----4--4--------|--2--4-------| 
D|--4--4---4--4----4--4-----4--4--------|--2--4-------| 
A|--4--4---4--4----2--2-----2--2--------|-----2-------| 
E|--2--2---2--2-------------------------|-------------| 

E|----------------------------------------------------| 
B|----------------------------------------------------| 
G|----------------------------------------------------| 
D|----------------------4-----------------------------| 
A|-------------------7--------------------------------| 
E|-2--2--4--2--5--2--------2--2--4--2--5--4--2--0-----| 

Pre-Chorus  
(Ponte) 
' Se você nunca se contradiz.. ' 
E|----------------------------------------------------| 
B|----------------------------------------------------| 
G|----------------------------------------------------| 
D|--2---------------7-7-7-7/6-6-6-6/4-4-4-4/2-2-2-----| 
A|--2------------7------------------------------------| 
E|----------------------------------------------------| 

' Não abre mão do que te faz feliz ' 
E|----------------------------------------------------| 
B|----------------------------------------------------| 
G|----------------------------------------------------| 
D|--2--------------7-7-7-7/6-6-6-6/7-7-7-7/9-9-9--4---| 
A|--2-----------7---------------------------------4---| 
E|------------------------------------------------2---| 

' Se não há nada que abale sua paz Já nasceu sabendo como é que se faz ' 
E|----------------------------------------------------| 
B|----------------------------------------------------| 
G|----------------------------------------------------| 
D|----------------------4-----------------------------| 
A|-------------------7--------------------------------| 
E|-2--2--4--2--5--2--------2--2--4--2--5--4--2--0-----| (Palm Muted Abafado) 

' E tudo segue do jeito que sempre quis..' 
E|-------------------------------x-x-x----------------| 
B|-------------------------------x-x-x----------------| 
G|-----------------6-6-6--4-4-4--2-2-2----------------| 
D|--2-----2--------6-6-6--4-4-4--2-2-2--6-6-6---------| 
A|--2-----2--------4-4-4--2-2-2--x-x-x--6-6-6---------| 
E|-------------------------------x-x-x--4-4-4---------| 

E|----------------------------------------------------| 
B|----------------------------------------------------| 
G|----------------------------------------------------| 
D|----------------------4-----------------------------| 
A|-------------------7--------------------------------| 
E|-2--2--4--2--5--2--------2--2--4--2--5--4--2--0-----| (Palm Muted Abafado) 

Chorus  
(Refrão) 
' Temos um sócio no Clube dos Canalhas, Não admitimos que apontem nossas falhas ' 
E|--x--x--x-------------------------------------------| 
B|--x--x--x-------------------------------------------| 
G|--2--2--2-------4--4--4-----------------------------| 
D|--2--2--2-------4--4--4----2--2--2--2---4--4--4--4--| 
A|--x--x--x-------2--2--2----2--2--2--2---4--4--4--4--| 
E|--x--x--x-------------------------------2--2--2--2--| 

' Queremos todo dia tudo isso que a vida tem de bom... ' 
E|--x-------------------------------------------------| 
B|--x-------------------------------------------------| 
G|--2---4---------------------------------------------| 
D|--2---4--------------------------4------------------| 
A|--x---2-----------------------7---------------------| 
E|--x---------2--2--4--2--5--2-------2-2-4-2-5-4-2-0--| 

' Farra pra tudo é um bom remédio, Só um idiota completo morre de tédio ' 
E|--x--x--x-------------------------------------------| 
B|--x--x--x-------------------------------------------| 
G|--2--2--2-------4--4--4-----------------------------| 
D|--2--2--2-------4--4--4----2--2--2--2---4--4--4--4--| 
A|--x--x--x-------2--2--2----2--2--2--2---4--4--4--4--| 
E|--x--x--x-------------------------------2--2--2--2--| 

' Queremos todo dia tudo isso que a vida tem de bom... ' 
E|--x----------------------------------------------| 
B|--x----------------------------------------------| 
G|--2----------------------------------------------| 
D|--2---2-----------------------4------------------| 
A|--x---2--------------------7---------------------| 
E|--x------2--2--4--2--5--2-------2-2-4-2-5-4-2-0--| 

(Just follow the pattern in the second part until the end) 
Só repetir o padrão até o fim da música 

Ending 
E|----------------------------------------------------| 
B|----------------------------------------------------| 
G|------------4---------------------------------------| 
D|--4--4------4-----4--4------------------------------| 
A|--4--4------2-----4--4------------------------------| 
E|--2--2------------2--2------------------------------| 


************************************ 

| /  Slide up 
| x  Dead note 

************************************ 

Compartilhe esta música: novo

QR Code
Copiar