The Love Song

311

Tom: Am
  
Intro:  
  
      Am      G      F      E  
e|---0--0----1--1---1--1---0--0---  
B|---1--1----0--0---1--1---0--0---  
G|---2--2----0--0---2--2---0--0---  x2  
D|--------------------------------  
A|--------------------------------  
E|--------------------------------  
  
e|----------------------------  
B|----1--3/5--3---5--3--1-----  
G|--2----------------------2--  x4  
D|----------------------------  
A|----------------------------  
E|----------------------------  
  
Am                G          F         Em   
 Whenever I'm alone with you  
Am                G          F         Em  
 You make me feel like I am home again  
Am                G          F         Em  
 Whenever I'm alone with you  
Am                G          F         Em  
 You make me feel like I am whole again  
  
e|--5/7--8-8--7--5--7-7--5--3--0-0-----        
B|-------------------------------------  x3  
G|-------------------------------------  
  
e|-------------------------------------  
B|--5--3--1--1-1--1-1------------------  
G|-------------------------------------  
  
Am                G           F          Em  
 Whenever I'm alone with you  
Am                G         F          Em  
 You make me feel like I am young again  
Am                G           F         Em  
 Whenever I'm alone with you  
Am                G         F         Em   
 You make me feel like I am fun again  
  
F        G       Am       C  
 However far away, I will always love you  
F        G          Am       C  
 However long I stay, I will always love you  
F         G          Am       C  
 Whatever words I say, I will always love you  
F       G    
 I will always love you  
  
Solo:  
  
e|--5/7--8-8--7--5--7-7--5--3--0-0-----        
B|-------------------------------------  x3  
G|-------------------------------------  
  
e|---------------------7-7-7-------7-7-7-7--------7-7-7----------------  
B|--5--3--1--1-1--1-1----------8-8----------8-8-8----------8-8-----------  
G|-----------------------------------------------------------------------  
  
e|--7-7-7-8-8/10---------------------------------------0---  
B|----------------8--8-10-10--5-3-1-3-1-1--1-3-1-0--0--1---  
G|-----------------------------------------------------2---  
D|-----------------------------------------------------2---  
A|-----------------------------------------------------0---  
E|-----------------------------------------------------0---  
  
Am                G           F          Em  
 Whenever I'm alone with you  
Am                G         F           Em  
 You make me feel like I am free again  
Am                G           F          Em  
 Whenever I'm alone with you  
Am                G         F           Em  
 You make me feel like I am clean again  
  
F        G       Am       C  
 However far away, I will always love you  
F        G          Am       C  
 However long I stay, I will always love you  
F         G          Am       C  
 Whatever words I say, I will always love you  
F       G               Am  
 I will always love you  
  
_______________________________________________________  
Contribuição: Willy Huang([email protected])  

Compartilhe esta música: novo

QR Code
Copiar