Space And Time

311

Tom: F
Artist: 311 
Album: Voyager 
Song: Space and Time 
Tuning: BEADG (5-String Bass) 

Intro/verse 1/Chorus 1 (0:10 - 1:32) 

G|---------------------------------------------------------------------| 
D|---------------------------------------------------------------------| 
A|--------------------3---3--5-------0h3----------1-----1-----0--------| 
E|----3---3-1-3-----3-----------1--------1-1--(1)---(1)---(1)---(1)----| 
B|---------------------------------------------------------------------| 

(The F's are written as ghost notes to point out the quick nature and articulation. Below is an alternative  
 fingering for those who want to play this in one position and avoid open strings.) 

G|---------------------------------------------------------------------| 
D|---------------------------------------------------------------------| 
A|--------------------3---3--5-------0h3-------------------------------| 
E|----3---3---3-----3-----------------------------6-----6-----5--------| 
B|----------6-------------------6--------6-6--(6)---(6)---(6)---(6)----| 

verse 2 (1:33 - 1:53) 
                                                              2x        
G|-------------------------------------------------------------| 
D|-------------------------------------------------------------| 
A|-------------------------------------------------------------| 
E|----x-x---x---x-x----x-x---x---x-x----1-1---1---1---1-1-1----| 
B|-------------------------------------------------------------| 

(This part is very tough to make out - it sounds like an F, but I don't know if P-Nut plays 
 the percussive section or what the exact rhythm for the second half is - only live performances will tell!) 

verse 2 (1:55 - 2:56) 

G|---------------------------------------------------------------------| 
D|---------------------------------------------------------------------| 
A|--------------------3---3--5-------0h3----------1-----1-----0--------| 
E|----3---3-1-3-----3-----------1--------1-1--(1)---(1)---(1)---(1)----| 
B|---------------------------------------------------------------------| 

(When this verse comes back in there's some effects added - sounds to me like octave  
 and envelope filter, but it might be fuzz and envelope filter.) 

Outro (2:57 - 3:34) 

G|---------------------------------------------------------------------| 
D|----5----------------------------------------------------------------| 
A|--------------------3---3--5-------0h3----------1-----1-----0--------| 
E|--------3-1-3-----------------1--------1-1--(1)---(1)---(1)---(1)----| 
B|---------------------------------------------------------------------| 

G|---------------------------------------------------------------------| 
D|---------------------------------------------------------------------| 
A|--------------------3---3--5--------------------1-----1-----0--------| 
E|----3---3-1-3-----------------1-------------(1)---(1)---(1)---(1)----| 
B|---------------------------------------------------------------------| 

G|---------------------------------------------------------------------| 
D|-------------------------------3-------------------------------------| 
A|--------------------3---3*-5*-------------------1-----1--------------| 
E|----3---3-1-3--------------------------------------------------------| 
B|---------------------------------------------------------------------| 

(This section is approximate - the bass is so hard to hear in the mix - the notes with  
 asterisks are marked as such because there's played different rhythmically than in the  
 rest of the song.) 

************************************ 

|(n)  Ghost note 
| h   Hammer-on 

************************************ 

Compartilhe esta música: novo

QR Code
Copiar