Friday Night Saturday Morning

The Specials

Intro 
G|---------------------------------|---------------------------------| 
D|---------5.5.5.5.--------3h5-3h5-|---------5.-5.-5.--------3h5-3h5-| 
A|-3-----3---------3-----3---------|-3-----3---------3-----3---------| 
E|---------------------------------|---------------------------------| 
   1 + + + 2 + + + 3 + + + 4 + + +   1 + + + 2 + + + 3 + + + 4 + + + 

verse 1 'Out of bed ...' 
G|---------------------------------|---------------------------------| 
D|---------5.5.5.5.--------5-------|-2-----2---------2-----2-----2---| 
A|-3-----3---------3-----3-----3-5-|---------2.2.2.2.--------2-----0-| 
E|---------------------------------|---------------------------------| 
   1 + + + 2 + + + 3 + + + 4 + + +   1 + + + 2 + + + 3 + + + 4 + + + 

G|---------------------------------|---------------------------------| 
D|---------5.5.5.5.------------5---|-2-----2---------2-----2-----2-x-| 
A|-3-----3---------3-----3-3-------|---------2.2.--2.--------2-------| 
E|---------------------------------|---------------------------------| 
   1 + + + 2 + + + 3 + + + 4 + + +   1 + + + 2 + + + 3 + + + 4 + + + 

G|---------------------------------|---------------------------------| 
D|-3-----3-------------------------|---------5.-5.-5.--------3h5-3h5-| 
A|-------------------------------0-|-3-----3---------3-----3---------| 
E|---------1.1.1.1.1-----1-1---1---|---------------------------------| 
   1 + + + 2 + + + 3 + + + 4 + + +   1 + + + 2 + + + 3 + + + 4 + + + 

G|---------------------------------|---------------------------------| 
D|---------------------------------|-------------------------5h7-5h7-| 
A|-------------------------------0-|-5-------5.5.--5.5-----5---------| 
E|---------1.1.1.1.1-----1-1-------|-------5-------------------------| 
   1 + + + 2 + + + 3 + + + 4 + + +   1 + + + 2 + + + 3 + + + 4 + + + 

verse 2 'When my feet ...' 
G|---------------------------------|---------------------------------| 
D|---------5.5.5.5.--------5.--5.x-|-2-----2---------2-----2-----2---| 
A|-------3---------3-----3---------|---------2.2.2.2.--------2-----0-| 
E|---------------------------------|---------------------------------| 
   1 + + + 2 + + + 3 + + + 4 + + +   1 + + + 2 + + + 3 + + + 4 + + + 

G|---------------------------------|---------------------------------| 
D|---------5.5.5.5.--------5-----0-|-2-----2---------2-----2-----2-x-| 
A|-3-----3---------3-----3-----3---|---------2.2.2.2.--------2-------| 
E|---------------------------------|---------------------------------| 
   1 + + + 2 + + + 3 + + + 4 + + +   1 + + + 2 + + + 3 + + + 4 + + + 

G|---------------------------------|---------------------------------| 
D|-3-----3---------------------3---|---------5.5.5.5.--------3h5-----| 
A|-------------------------3-----0-|-3-----3---------3-----3-----3.--| 
E|---------1.1.1.1.1-----1---------|---------------------------------| 
   1 + + + 2 + + + 3 + + + 4 + + +   1 + + + 2 + + + 3 + + + 4 + + + 

G|---------------------------------|---------------------------------| 
D|---------------------------------|---------------------------------| 
A|-------------------------------0-|-5-------5.5.--5.5~--------------| 
E|---------1.1.1.1.1-----1-1---1---|-------5-------------------------| 
   1 + + + 2 + + + 3 + + + 4 + + +   1 + + + 2 + + + 3 + + + 4 + + + 

Chorus 1 'I go out ..' 
G|---------------------------------|---------------------------------| 
D|-------9-8---9---------9-8-9\----|-------9-8---9-------------------| 
A|-7---------------6---------------|-5---------------4-----3-----2/--| 
E|---------------------------------|---------------------------------| 
   1 + + + 2 + + + 3 + + + 4 + + +   1 + + + 2 + + + 3 + + + 4 + + + 

G|---------------------------------|---------------------------------| 
D|-------9-8---9---------9-8---9---|-------9-8---9-------------------| 
A|-7---------------6---------------|-5---------------4-----3-----2.--| 
E|---------------------------------|---------------------------------| 
   1 + + + 2 + + + 3 + + + 4 + + +   1 + + + 2 + + + 3 + + + 4 + + + 

verse 3 'I like to venture ...' 
G|---------------------------------|---------------------------------| 
D|---------5.5.5.5.--------5-------|-2-----2---------2-----2-----2---| 
A|-3-----3---------3-----3-----3-5-|---------2.2.2.2.--------2-----0-| (x2) 
E|---------------------------------|---------------------------------| 
   1 + + + 2 + + + 3 + + + 4 + + +   1 + + + 2 + + + 3 + + + 4 + + + 

G|---------------------------------|---------------------------------| 
D|-3-----3---------------------3---|---------5.5.5.5.--------5-----x-| 
A|-------------------------3-----x-|-3-----3---------3-----3-----3---| 
E|---------1.1.1.1.1-----1---------|---------------------------------| 
   1 + + + 2 + + + 3 + + + 4 + + +   1 + + + 2 + + + 3 + + + 4 + + + 

G|---------------------------------|---------------------------------| 
D|-3-----3-------------------------|---------------------------------| 
A|-------------------------------0-|-5-------5.5.--5.5-------5---5---| 
E|---------1.1.1.1.1.-1.-1-1---1---|-------5---------------5---------| 
   1 + + + 2 + + + 3 + + + 4 + + +   1 + + + 2 + + + 3 + + + 4 + + + 

Chorus 2 'I go out ..' 
G|---------------------------------|---------------------------------| 
D|---------------------------------|---------------------------------| 
A|---------7\--------------6\------|---------5\------4-----3-----2.--| 
E|---------------------------------|---------------------------------| 
   1 + + + 2 + + + 3 + + + 4 + + +   1 + + + 2 + + + 3 + + + 4 + + + 

G|---------------------------------|---------------------------------| 
D|-------9-8---9---------9-8---9---|-------9-8-9\--------------------| 
A|-7---------------6---------------|-5---------------4-----3-----2.--| 
E|---------------------------------|---------------------------------| 
   1 + + + 2 + + + 3 + + + 4 + + +   1 + + + 2 + + + 3 + + + 4 + + + 

Solo 
G|---------------------------------|---------------------------------| 
D|---------5.5.5.5.--------5-------|-2-----2---------2-----2-----2---| 
A|-3-----3---------3-----3-----3-5-|---------2.2.2.2.--------2-----0-| 
E|---------------------------------|---------------------------------| 
   1 + + + 2 + + + 3 + + + 4 + + +   1 + + + 2 + + + 3 + + + 4 + + + 

G|---------------------------------|---------------------------------| 
D|---------5.5.5.5.--------5-------|-2---------------------0---1---2-| 
A|-3-----3---------3-----3-----3-5-|-------0---1---2---3-------------| 
E|---------------------------------|---3-----------------------------| 
   1 + + + 2 + + + 3 + + + 4 + + +   1 + + + 2 + + + 3 + + + 4 + + + 

G|---------------------------------|-----3-3---4.--5.----7-8-9---\---| 
D|---------------------------------|-------------------7-------------| 
A|---------0-0---0-1.1.--1-2.2.--0-|-3-------------------------------| 
E|-1-----1-------------------------|---------------------------------| 
   1 + + + 2 + + + 3 + + + 4 + + +   1 + + + 2 + + + 3 + + + 4 + + + 

G|---------------------------------|---------------------------------| 
D|-3-----3-------------------------|---------2--3--4-5---------------| 
A|---------0-0---0-1-1---1-3.3.3.0-|-5-----5---------------5-------2-| 
E|---------------------------------|-------------------------3-------| 
   1 + + + 2 + + + 3 + + + 4 + + +   1 + + + 2 + + + 3 + + + 4 + + + 

verse 4 'But two o'clock ...' 
G|---------------------------------|---------------------------------| 
D|---------5.5.5.5.--------5-------|-2-----2---------2-----2-----2---| 
A|-3-----3---------3-----3-----3-5-|---------2.2.2.2.--------2-----0-| (x2) 
E|---------------------------------|---------------------------------| 
   1 + + + 2 + + + 3 + + + 4 + + +   1 + + + 2 + + + 3 + + + 4 + + + 

G|---------------------------------|---------------------------------| 
D|-3---3---------------------------|---------5.5.5.5.--------5-----x-| 
A|-------------------------------0-|-3-----3---------3-----3-----3---| 
E|---------1.1.1.1.1.-1.-1-1---1---|---------------------------------| 
   1 + + + 2 + + + 3 + + + 4 + + +   1 + + + 2 + + + 3 + + + 4 + + + 

G|---------------------------------|---------------------------------| 
D|-3-------------------------------|---------------------------------| 
A|-------------------------------0-|-5-------5.5.----5.5.----5-------| 
E|---------1.1.1.1.1.----1-1-------|-------5-------5-------5---------| 
   1 + + + 2 + + + 3 + + + 4 + + +   1 + + + 2 + + + 3 + + + 4 + + + 

Chorus 3 'I go out ..' 
G|---------------------------------|---------------------------------| 
D|---------------------------------|---------------------------------| 
A|---------7\--------------6\------|---------5\------4-----3-----2.--| 
E|---------------------------------|---------------------------------| 
   1 + + + 2 + + + 3 + + + 4 + + +   1 + + + 2 + + + 3 + + + 4 + + + 

G|---------------------------------|---------------------------------| 
D|-------9-8-9\----------9-8---9---|-------9-8-9\--------------------| 
A|-7---------------6---------------|-5---------------4-----3-----2/--| (x5)  
E|---------------------------------|---------------------------------| 
   1 + + + 2 + + + 3 + + + 4 + + +   1 + + + 2 + + + 3 + + + 4 + + + 



************************************ 

| h  Hammer-on 
| x  Dead note 
| ~  Vibrato 
| \  Slide down 
| /  Slide up 
| .   
Staccato 

************************************ 

Compartilhe esta música: novo

QR Code
Copiar