Can You Help Me Sing My Song

The Rain

Tuning: 1/4 step down. 

0:09 

G|------------------------| 
D|--------4-------6-------| 
A|7-----------------------| 
E|------------------------| 

G|----------------------------------------------------------------| 
D|7---------------------------------------------------------------| 
A|--------------------------------4-------------------------------| 
E|----------------------------------------------------------------| 

G|----------------------------------------------------------------| 
D|----------------------------------------------------------------| 
A|5-------------------------------7-------------------------------| 
E|----------------------------------------------------------------| 

G|----------------------------------------------------------------| 
D|7---------------------------------------------------------------| 
A|--------------------------------4-------------------------------| 
E|----------------------------------------------------------------| 

G|----------------------------------------------------------------| 
D|------------------------------------------------4-------6-------| 
A|5-------------------------------7-------7-----------------------| 
E|----------------------------------------------------------------| 

0:20 

G|----------------------------------------------------------------|. 
D|7---------------------------------------------------------------|. 
A|--------------------------------4-------------------------------|. 
E|----------------------------------------------------------------|. 
                                                                   . x2 
G|----------------------------------------------------------------|. 
D|----------------------------------------------------------------|. 
A|5-------------------------------7-------------------------------|. 
E|----------------------------------------------------------------|. 

G|----------------------------------------------------------------| 
D|5h7---------5h7---------5---------------------------------------| 
A|------------------------------------7-----------5---------------| 
E|----------------------------------------------------------------| 

G|------------------------------------------------| 
D|------------------------------------------------| 
A|4h5---------4h5---------4-----------2-----------| 
E|------------------------------------------------| 

0:35 

G|----------------------------------------------------------------| 
D|----------------------------------------------------------------| 
A|0-------------------------------4-------------------------------| 
E|----------------------------------------------------------------| 

G|----------------------------------------------------------------| 
D|----------------------------------------------------------------| 
A|5-------------------------------7-------------------------------| 
E|----------------------------------------------------------------| 

G|----------------------------------------------------------------| 
D|----------------------------------------------------------------| 
A|0-------------------------------4-------------------------------| 
E|----------------------------------------------------------------| 

G|----------------------------------------------------------------| 
D|------------------------------------------------4-------6-------| 
A|5-------------------------------7-------7-----------------------| 
E|----------------------------------------------------------------| 

0:45 

G|----------------------------------------------------------------|. 
D|7---------------------------------------------------------------|. 
A|--------------------------------4-------------------------------|. 
E|----------------------------------------------------------------|. 
                                                                   . x2 
G|----------------------------------------------------------------|. 
D|----------------------------------------------------------------|. 
A|5-------------------------------7-------------------------------|. 
E|----------------------------------------------------------------|. 

G|----------------------------------------------------------------| 
D|5h7---------5h7---------5---------------------------------------| 
A|------------------------------------7-----------5---------------| 
E|----------------------------------------------------------------| 

G|------------------------------------------------| 
D|------------------------------------------------| 
A|5h7---------5h7---------5-----------4-----------| 
E|------------------------------------------------| 

G|----------------------------------------------------------------| 
D|----------------------------------------------------------------| 
A|0---------------------------------------------------------------| 
E|----------------------------------------------------------------| 

1:02 

G|----------------------------------------------------------------| 
D|4-----------4---4-----------4-------4---4-----------4---4-------| 
A|----------------------------------------------------------------| 
E|----------------------------------------------------------------| 

G|----------------------------------------------------------------| 
D|----------------------------------------------------------------| 
A|2-----------2---2-----------2---2-------4-------5-------2-------| 
E|----------------------------------------------------------------| 

G|----------------------------------------------------------------| 
D|6-----------6---6-----------6-------6---6---------------6-------| 
A|----------------------------------------------------------------| 
E|----------------------------------------------------------------| 

G|----------------------------------------------------------------| 
D|----------------------------7-----------7---------------7-------| 
A|4-----------4---4-------------------7---------------7-------7---| 
E|----------------------------------------------------------------| 

1:12 

G|----------------------------------------------------------------| 
D|7---------------------------------------------------------------| 
A|--------------------------------4-------------------------------| 
E|----------------------------------------------------------------| 

G|----------------------------------------------------------------| 
D|----------------------------------------------------------------| 
A|5-------------------------------7-------------------------------| 
E|----------------------------------------------------------------| 

G|----------------------------------------------------------------| 
D|7---------------------------------------------------------------| 
A|--------------------------------4-------------------------------| 
E|----------------------------------------------------------------| 

G|----------------------------------------------------------------| 
D|------------------------------------------------4-------6-------| 
A|5-------------------------------7-------7-----------------------| 
E|----------------------------------------------------------------| 

1:22 

G|----------------------------------------------------------------|. 
D|7---------------------------------------------------------------|. 
A|--------------------------------4-------------------------------|. 
E|----------------------------------------------------------------|. 
                                                                   . x2 
G|----------------------------------------------------------------|. 
D|----------------------------------------------------------------|. 
A|5-------------------------------7-------------------------------|. 
E|----------------------------------------------------------------|. 

1:32 

G|----------------------------------------------------------------| 
D|5h7-------------------------------------------------------------| 
A|--------------------------------4-------------------------------| 
E|----------------------------------------------------------------| 

G|----------------------------------------------------------------| 
D|----------------------------------------------------------------| 
A|5-------------------------------7-------------------------------| 
E|----------------------------------------------------------------| 

G|----------------------------------------------------------------| 
D|7---------------------------------------------------------------| 
A|--------------------------------4-------------------------------| 
E|----------------------------------------------------------------| 

G|----------------------------------------------------------------| 
D|----------------------------------------------------------------| 
A|5-------------------------------7-------------------------------| 
E|----------------------------------------------------------------| 

G|----------------------------------------------------------------| 
D|5h7---------5h7---------5---------------------------------------| 
A|------------------------------------7-----------5---------------| 
E|----------------------------------------------------------------| 

G|----------------------------------------------------| 
D|----------------------------------------------------| 
A|4h5---------4h5---------4-----------2-----------0---| 
E|----------------------------------------------------| 

Compartilhe esta música: novo

QR Code
Copiar