The Last Song I Will Ever Write About...

The Ataris

submited by:dave parisi

Intro and verse x6
G|---------------------------------------------------------------------------|
D|---------------------------------------------------------------------------|
A|------------33333333-44444444----------------------------------------------|
E|--111111111-------------------444-333--------------------------------------|

Chorus x2
G|---------------------------------------------------------------------------|
D|---------------------------------------------------------------------------|
A|--44444444444--------666666------------------------------------------------|
E|--------------444444-------------------------------------------------------|

Bridge
G|---------------------------------------------------------------------------|
D|---------------------------------------------------------------------------|
A|--1111-3-4444444444-1111-3-4444-66-77--------------------------------------|
E|---------------------------------------------------------------------------|

Intro and verse x6
G|---------------------------------------------------------------------------|
D|---------------------------------------------------------------------------|
A|------------33333333-44444444----------------------------------------------|
E|--111111111-------------------444-333--------------------------------------|

Chorus x2
G|---------------------------------------------------------------------------|
D|---------------------------------------------------------------------------|
A|--44444444444--------666666------------------------------------------------|
E|--------------444444-------------------------------------------------------|

Bridge
G|---------------------------------------------------------------------------|
D|---------------------------------------------------------------------------|
A|--1111-3-4444444444-1111-3-4444-66-77--------------------------------------|
E|---------------------------------------------------------------------------|

Solo
G|---------------------------------------------------------------------------|
D|--666----------------------------------------------------------------------|
A|------88---{10}-8-------44444444-------------------------------------------|
E|---------8--------88888----------444-333-----------------------------------|

Ending
G|---------------------------------------------------------------------------|
D|---------------------------------------------------------------------------|
A|------------------------4---6----------------------------------------------|
E|1---3---4---6---7---9------------------------------------------------------|

===============================================================================

Compartilhe esta música: novo

QR Code
Copiar