The Boys Of Summer

The Ataris

Tuning: E,A,D,G

Intro:
G:----------------------------------------------------
D:----------------------------------------------------
A:-6~--------6~------2~------4~------2~------22222222-
E:----------------------------------------------------

Verse:
G:------------------------------------
D:------------------------------------
A:-6-66-66--6-66-66--6-66-66--6-66-66-
E:------------------------------------

G:------------------------------------
D:------------------------------------
A:-2-22-22--2-22-22--2-22-22--2-22-22-
E:------------------------------------

G:------------------------------------
D:------------------------------------
A:-4-44-44--4-44-44--4-44-44--4-44-44-
E:------------------------------------

G:------------------------------------
D:------------------------------------
A:-2-22-22--2-22-22--2-22-22--2-22-22-
E:------------------------------------

Chorus:
G:-----------------------------------------------------------------
D:-----------------------------------------------------------------
A:-99-9999-99-9999-44-4444-44-4444-44-4444-44-4444-22-2222-22-2222-
E:----------------------------------------------------------------- 2x

Verse:
G:------------------------------------
D:------------------------------------
A:-6-66-66--6-66-66--6-66-66--6-66-66-
E:------------------------------------

G:------------------------------------
D:------------------------------------
A:-2-22-22--2-22-22--2-22-22--2-22-22-
E:------------------------------------

G:------------------------------------
D:------------------------------------
A:-4-44-44--4-44-44--4-44-44--4-44-44-
E:------------------------------------

G:------------------------------------
D:------------------------------------
A:-2-22-22--2-22-22--2-22-22--2-22-22-
E:------------------------------------

Verse 2:
G:------------------------------------
D:------------------------------------
A:66666666666666666666666666666666666-
E:------------------------------------

G:------------------------------------
D:------------------------------------
A:22222222222222222222222222222222222-
E:------------------------------------

G:------------------------------------
D:------------------------------------
A:44444444444444444444444444444444444-
E:------------------------------------

G:------------------------------------
D:------------------------------------
A:22222222222222222222222222222222222-
E:------------------------------------

Chorus:
G:-----------------------------------------------------------------
D:-----------------------------------------------------------------
A:-99-9999-99-9999-44-4444-44-4444-44-4444-44-4444-22-2222-22-2222-
E:----------------------------------------------------------------- 2x

Bridge:
G:---------------
D:---------------
A:-2~---------2~-
E:---------------

G:------------------------------------
D:------------------------------------
A:-6-66-66--6-66-66--6-66-66--6-66-66-
E:------------------------------------

G:------------------------------------
D:------------------------------------
A:-2-22-22--2-22-22--2-22-22--2-22-22-
E:------------------------------------

G:------------------------------------
D:------------------------------------
A:-4-44-44--4-44-44--4-44-44--4-44-44-
E:------------------------------------

G:------------------------------------
D:------------------------------------
A:-2-22-22--2-22-22--2-22-22--2-22-22-
E:------------------------------------ 2x

G:------------------------------------
D:------------------------------------
A:-6-66-66--6-66-66--6-66-66--6-66-66-
E:------------------------------------

G:------------------------------------
D:------------------------------------
A:-2-22-22--2-22-22--2-22-22--2-22-22-
E:------------------------------------

G:------------------------------------
D:------------------------------------
A:44444444444444444444444444444444444-
E:------------------------------------

G:------------------------------------
D:------------------------------------
A:22222222222222222222222222222222222-
E:------------------------------------

Chorus:
G:-----------------------------------------------------------------
D:-----------------------------------------------------------------
A:-99-9999-99-9999-44-4444-44-4444-44-4444-44-4444-22-2222-22-2222-
E:-----------------------------------------------------------------

G:------------------------------------------------------------------------
D:------------------------------------------------------------------------
A:-99-9999-99-9999-44-4444-44-4444-44-4444-44-4444-22222222/1616-16-18-16-
E:------------------------------------------------------------------------ 2x

G:-----------------------------------------------------------------
D:-----------------------------------------------------------------
A:-99-9999-99-9999-44-4444-44-4444-44-4444-44-4444-22-2222-22-2222-
E:-----------------------------------------------------------------

Compartilhe esta música: novo

QR Code
Copiar