Take Me Back

The Ataris

Band: the 
 Tke Me Back
Album: Anywhere But Here
Tuning 4-string: E A D G

Intro
G ----------------------------------------------------------------------|
D ----------------------------------------------------------------------|
A --------6-66-66-7-77-77-----------------6-66-66-7-77-77--9-9-9--7-7-7-| 
E -7-77-77----------------2-22-22-7-77-77-------------------------------|

Verse
G ---------------------------------------------------------------------------|
D ---------------------------------------------------------------------------|
A ----------6-666666-7-777777-------------------6-666666-7-777777--9-9-9-777-| 2x 
E -7-777777-------------------2-222222-7-777777------------------------------|

Chorus
G -------------------------------------------------------------|
D -------------------------------------------------------------|
A ------------------------------------------------------964----|
E -4444-22-000-22-44422000-222-444-22-0000-11-22222222------7--|

Intro 1x
verse 2x
Chorus 1x

Bridge
G ------------------------------------86----------|
D --------------------------------------97--------|
A ---------------------7-77-77-9-9-9-9----1097----| 4x
E -7777-6666-4444-2222------------------------97--|

End
G -------------|
D -------------|
A -------------|
E --7r-----77--|

Thats it I think it`s correct but that`s up to you.
the only thing I'am not sure about is the bridge.
Greetings ClosedRoad  (please rate it)

Compartilhe esta música: novo

QR Code
Copiar