My Hotel Years

The Ataris


Intro/Verse
G|---------------------------------------------------------------------------|
D|---------------------------------------------------------------------------|
A|----------------------------------5>---------------------------------------|
E|-/2222-2-2222-2-3333-3-3333-3-6>----2222-2-2222-2-3333-3-3333-3-6----------|

Chorus
G|---------------------------------------------------------------------------|
D|---------------------------------------------------------------------------|
A|-55------------------55----------------------------------------------------|
E|----66-77-55-3>-6>------66-77-55-3>-6--------------------------------------|

Verse
G|---------------------------------------------------------------------------|
D|---------------------------------------------------------------------------|
A|-5>--------------------------------5>--------------------------------------|
E|----2222-2-2222-2-3333-3-3333-3-6>---2222-2-2222-2-3333-3-3333-3-6>--------|

Chorus
G|---------------------------------------------------------------------------|
D|---------------------------------------------------------------------------|
A|-55----------------55------------------------------------------------------|
E|----66-77-55-3>-6>----66-77-55-3>-6----------------------------------------|

Bridge
G|---------------------------------------------------------------------------|
D|---------------------------------55-44-22-0--------------------------------|
A|---------------------------------------------------------------------------|
E|-77-22-33-55--77-22-3>-55555555--------------3>-5>-------------------------|

Ending
G|---------------------------------------------------------------------------|
D|---------------------------------------------------------------------------|
A|-5>---5>---5>---5>-----------5---------------------------------------------|
E|----6>---6>---6>---6>-2-3-5------------------------------------------------|

Compartilhe esta música: novo

QR Code
Copiar