Make It Last

The Ataris

Band: The 
 
Album: ...Anywhere But Here
Tuning 4-string: G D A E

Intro Only guitar

verse
G ------------------------------|
D ------------------------------|
A ---------------3(16x)-5(16x)--|
E -3(16x)-0(16x)----------------|

chorus
G -------------------------------------------------------------------|
D -------------------------------------------------------------------|
A ---------33333333--------55555555--------333333335555555555555555--|
E -00000000--------33333333--------00000000--------------------------|

G -------------------------------------------------------------|
D ---------------------------------------------------75---75---|
A ---------33333333--------55555555---------333333335---55---5-|
E -00000000--------33333333--------xx000000--------------------|

verse 2x
Chorus

Bridge
G --------------------------------------------|
D --------------------------------------------|
A ---------------------3-3-33-33-5-5-55-5-32--|
E -3-3-33-33-0-0-00-00------------------------|

G --------------------------------------------|
D --------------------------------------------|
A ------------------------3-3-33-33-55555555--|
E -xx-3-3-33-33-0-0-00-00---------------------|

Chorus

End
G -------|
D -------|
A -------|
E --3/0--|

that's It realy think it's correct but that's up to you please rate it and have fun
Greetings ClosedRoad

Compartilhe esta música: novo

QR Code
Copiar