Hey Kid

The Ataris



Tabber:danny182

Intro:
E|---12\3--- 

Verse 
G|-------------7---7-----9---9---5---4----| 
D|---5---5--------------------------------| 
A|---------4/5---5---5/7---7---3---2------|       
E|-3---3----------------------------------| 

G|-------------7---7---4---4---5---4---| 
D|---5---5-----------------------------| 
A|---------4/5---5---2---2---3---2-----| 
E|-3---3-------------------------------|

Chorus:
G|----------------------------------------| 
D|----------------------------------------| 
A|-----5>--7>--3>-2>----5>-2>-3>-2>-------| 
E|--3>---------------3>-------------------| 

Bridge 
G|----------------------------------------| 
D|----------------------------------------| 
A|--10>-9>-10>--9--5--3>-2>-3>------------| 
E|----------------------------------------| 

End on E:-3- 

There are a couple fills thrown in but you can figure 
those out on your own
End with 'G' and hold the note (or E:-(3)-)

Compartilhe esta música: novo

QR Code
Copiar