Four Chord Wonder

The Ataris

This such a good song I`am Sure this is correct.
the solo in the middle is so wonderful and cool to play.
put your bass in normal tuning -> G D A E

Intro/Verse 1
g --------------------------------------|
d ----------22222222-44444444-00000000--|
a --00000000----------------------------|
e --------------------------------------|

g ------------------------------------|
d ----------22222222------------------|
a --00000000----------------55555555--|
e ------------------22222222----------|
Play both 3 times

Chorus 1
g ----------------|   |----------------------------|
d ----------------|   |---------0000-2222----------|
a -------55555555-|3x |-22222222-------------------|
e --2-222---------|   |----------------------------|

Verse1 1x

The slowdown
g --------------------------------------|
d ----------22222222-44444444-00000000--|
a --00000000----------------------------|
e --------------------------------------|

g ----------------------|
d ---------22222--------|
a --0000000----------5--|
e --------------2222----|

Verse 1 1x

Chorus 2
g -------------------------------------------------|
d ---------------------------------------22222000--|
a --22222222-4444-55555555-22222222-4444-----------|
e -------------------------------------------------|

Bridge 2
g ------------------------------|
d ------------------------------| 2x
a --22222222-00000000-55555555--|
e ------------------------------|

Guitar Solo
g ------------------------------------------------------------|
d ---------22222222-44444444--------------------------2(16x)--|
a -00000000-----------------44444444-55555555-00000000--------|
e ------------------------------------------------------------|

Chorus 3
g ----------------|    |-------------------|
d ----------------|    |---------00002222--|
a -------55555555-| 3x |-22222222----------|
e --2-222---------|    |-------------------|

End
g ------------|
d ---2-4-0----|
a --0-----0r--|
e ------------|

That`s it if you have corrections please say it 
>ClosedRoad<

Compartilhe esta música: novo

QR Code
Copiar